  0
SECTION
  2
HEADER
  9
$ACADVER
  1
AC1009
  9
$INSBASE
 10
0
 20
0
 30
0
  9
$EXTMIN
 10
0
 20
0
  9
$EXTMAX
 10
14850
 20
10500
  9
$LIMMIN
 10
0
 20
0
  9
$LIMMAX
 10
14850
 20
10500
  9
$LTSCALE
 40
50
  0
ENDSEC
  0
SECTION
  2
TABLES
  0
TABLE
  2
LTYPE
 70
     9
  0
LTYPE
  2
CONTINUOUS
 70
    64
  3
実線
 72
    65
 73
     0
 40
0.0
  0
LTYPE
  2
DASHED1
 70
    64
  3
--  --  --  --  --  --  --  --  
 72
    65
 73
     2
 40
2.5
 49
1.25
 49
-1.25
  0
LTYPE
  2
DASHED2
 70
    64
  3
----    ----    ----    ----    
 72
    65
 73
     2
 40
5.0
 49
2.5
 49
-2.5
  0
LTYPE
  2
DASHED3
 70
    64
  3
------  ------  ------  ------  
 72
    65
 73
     2
 40
5.0
 49
3.75
 49
-1.25
  0
LTYPE
  2
CENTER1
 70
    64
  3
----- - ----- - ----- - ----- - 
 72
    65
 73
     4
 40
10.0
 49
6.25
 49
-1.25
 49
1.25
 49
-1.25
  0
LTYPE
  2
CENTER2
 70
    64
  3
----------  --  ----------  --  
 72
    65
 73
     4
 40
20.0
 49
12.5
 49
-2.5
 49
2.5
 49
-2.5
  0
LTYPE
  2
PHANTOM1
 70
    64
  3
--- - - --- - - --- - - --- - - 
 72
    65
 73
     6
 40
10.0
 49
3.25
 49
-1.25
 49
1.25
 49
-1.25
 49
1.25
 49
-1.25
  0
LTYPE
  2
PHANTOM2
 70
    64
  3
--------  -  -  --------  -  -  
 72
    65
 73
     6
 40
20.0
 49
10.0
 49
-2.5
 49
1.25
 49
-2.5
 49
1.25
 49
-2.5
  0
LTYPE
  2
DOT
 70
    64
  3
-   -   -   -   -   -   -   -   
 72
    65
 73
     2
 40
2.5
 49
0.625
 49
-1.875
  0
LTYPE
  2
DUMMY
 70
    64
  3
ダミー
 72
    65
 73
     0
 40
0.0
  0
LTYPE
  2
RAND1
 70
    64
  3
ランダム線1
 72
    65
 73
     4
 40
10.0
 49
1.0
 49
-2.0
 49
3.0
 49
-4.0
  0
LTYPE
  2
RAND2
 70
    64
  3
ランダム線2
 72
    65
 73
     4
 40
14.0
 49
2.0
 49
-3.0
 49
4.0
 49
-5.0
  0
LTYPE
  2
RAND3
 70
    64
  3
ランダム線3
 72
    65
 73
     4
 40
18.0
 49
3.0
 49
-4.0
 49
5.0
 49
-6.0
  0
LTYPE
  2
RAND4
 70
    64
  3
ランダム線4
 72
    65
 73
     4
 40
22.0
 49
4.0
 49
-5.0
 49
6.0
 49
-7.0
  0
LTYPE
  2
RAND5
 70
    64
  3
ランダム線5
 72
    65
 73
     4
 40
26.0
 49
5.0
 49
-6.0
 49
7.0
 49
-8.0
  0
LTYPE
  2
LONG1
 70
    64
  3
----------  --  ----------  --  
 72
    65
 73
     4
 40
40.0
 49
32.5
 49
-2.5
 49
2.5
 49
-2.5
  0
LTYPE
  2
LONG2
 70
    64
  3
--------  -  -  --------  -  -  
 72
    65
 73
     6
 40
40.0
 49
30.0
 49
-2.5
 49
1.25
 49
-2.5
 49
1.25
 49
-2.5
  0
LTYPE
  2
LONG3
 70
    64
  3
+++++++++++++++..+++++++++++++++
 72
    65
 73
     2
 40
40.0
 49
37.5
 49
-2.5
  0
LTYPE
  2
LONG4
 70
    64
  3
+++++++++++++++..+++++++++++++++
 72
    65
 73
     2
 40
80.0
 49
75.0
 49
-5.0
  0
LTYPE
  2
LONG5
 70
    64
  3
----------  --  ----------  --  
 72
    65
 73
     4
 40
60.0
 49
37.5
 49
-7.5
 49
7.5
 49
-7.5
  0
LTYPE
  2
dashed
 70
   64
  3
-------   -------------   ------
 72
   65
 73
    2
 40
7.5
 49
6
 49
-1.5
  0
LTYPE
  2
dashed_spaced
 70
   64
  3
----        --------        ----
 72
   65
 73
    2
 40
12
 49
6
 49
-6
  0
LTYPE
  2
long_dashed_dotted
 70
   64
  3
------------- --- --------------
 72
   65
 73
    4
 40
15.25
 49
12
 49
-1.5
 49
0.25
 49
-1.5
  0
LTYPE
  2
long_dashed_double-dotted
 70
   64
  3
----------- --- --- ------------
 72
   65
 73
    6
 40
17
 49
12
 49
-1.5
 49
0.25
 49
-1.5
 49
0.25
 49
-1.5
  0
LTYPE
  2
long_dashed_triplicate-dotted
 70
   64
  3
--------- --- --- --- ----------
 72
   65
 73
    8
 40
18.75
 49
12
 49
-1.5
 49
0.25
 49
-1.5
 49
0.25
 49
-1.5
 49
0.25
 49
-1.5
  0
LTYPE
  2
dotted
 70
   64
  3
   -       -       -       -    
 72
   65
 73
    2
 40
1.75
 49
0.25
 49
-1.5
  0
LTYPE
  2
chain
 70
   64
  3
-------------- -- --------------
 72
   65
 73
    4
 40
18.5
 49
12
 49
-1.5
 49
3.5
 49
-1.5
  0
LTYPE
  2
chain_double_dash
 70
   64
  3
------------ -- -- -------------
 72
   65
 73
    6
 40
23.5
 49
12
 49
-1.5
 49
3.5
 49
-1.5
 49
3.5
 49
-1.5
  0
LTYPE
  2
dashed_dotted
 70
   64
  3
-----------     -     ----------
 72
   65
 73
    4
 40
9.25
 49
6
 49
-1.5
 49
0.25
 49
-1.5
  0
LTYPE
  2
double-dashed_dotted
 70
   64
  3
------   -----------   -   -----
 72
   65
 73
    6
 40
16.75
 49
6
 49
-1.5
 49
6
 49
-1.5
 49
0.25
 49
-1.5
  0
LTYPE
  2
dashed_double-dotted
 70
   64
  3
---------    -    -    ---------
 72
   65
 73
    6
 40
11
 49
6
 49
-1.5
 49
0.25
 49
-1.5
 49
0.25
 49
-1.5
  0
LTYPE
  2
double-dashed_double-dotted
 70
   64
  3
-----   ---------   -   -   ----
 72
   65
 73
    8
 40
18.5
 49
6
 49
-1.5
 49
6
 49
-1.5
 49
0.25
 49
-1.5
 49
0.25
 49
-1.5
  0
LTYPE
  2
dashed_triplicate-dotted
 70
   64
  3
-------    -    -    -    ------
 72
   65
 73
    8
 40
12.75
 49
6
 49
-1.5
 49
0.25
 49
-1.5
 49
0.25
 49
-1.5
 49
0.25
 49
-1.5
  0
LTYPE
  2
double-dashed_triplicate-dotted
 70
   64
  3
-----  ---------  -  -  -  -----
 72
   65
 73
   10
 40
20.25
 49
6
 49
-1.5
 49
6
 49
-1.5
 49
0.25
 49
-1.5
 49
0.25
 49
-1.5
 49
0.25
 49
-1.5
  0
LTYPE
  2
undefined
 70
   64
  3
--------------------------------
 72
   65
 73
    0
 40
0
  0
ENDTAB
  0
TABLE
  2
STYLE
  5
3
100
AcDbSymbolTable
 70
     1
  0
STYLE
  5
10
100
AcDbSymbolTableRecord
100
AcDbTextStyleTableRecord
  2
STANDARD
 70
     0
 40
0.0
 41
1.0
 50
0.0
 71
     0
 42
0.2
  3
txt
  4
bigfont.shx
  0
STYLE
  5
26
100
AcDbSymbolTableRecord
100
AcDbTextStyleTableRecord
  2
TATEGAKI
 70
    68
 40
0.0
 41
1.0
 50
0.0
 71
     0
 42
1.0
  3
txt
  4
bigfont.shx
  0
ENDTAB
  0
TABLE
  2
LAYER
 70
    3
  0
LAYER
  2
_0-0_LAYER_1
 70
   64
 62
    7
  6
CONTINUOUS
  0
LAYER
  2
_0-1_
 70
   64
 62
    7
  6
CONTINUOUS
  0
LAYER
  2
ADD_LINE
 70
   64
 62
    7
  6
CONTINUOUS
  0
ENDTAB
  0
ENDSEC
  0
SECTION
  2
BLOCKS
  0
ENDSEC
  0
SECTION
  2
ENTITIES
  0
LINE
  8
_0-1_
  6
CONTINUOUS
 62
    7
 10
7576.28125
 20
5006
 11
6866.28125
 21
5006
  0
LINE
  8
_0-1_
  6
CONTINUOUS
 62
    7
 10
6721.28125
 20
5006
 11
7721.28125
 21
5006
  0
LINE
  8
_0-1_
  6
CONTINUOUS
 62
    7
 10
7721.28125
 20
5006
 11
7721.28125
 21
4986
  0
LINE
  8
_0-1_
  6
CONTINUOUS
 62
    7
 10
7721.28125
 20
4986
 11
6721.28125
 21
4986
  0
LINE
  8
_0-1_
  6
CONTINUOUS
 62
    7
 10
6721.28125
 20
4986
 11
6721.28125
 21
5006
  0
LINE
  8
_0-1_
  6
CONTINUOUS
 62
    7
 10
6871.28125
 20
4986
 11
6821.28125
 21
4986
  0
LINE
  8
_0-1_
  6
CONTINUOUS
 62
    7
 10
7571.28125
 20
4986
 11
7621.28125
 21
4986
  0
LINE
  8
_0-1_
  6
CONTINUOUS
 62
    7
 10
6721.28125
 20
4916
 11
7721.28125
 21
4916
  0
LINE
  8
_0-1_
  6
CONTINUOUS
 62
    7
 10
7721.28125
 20
4916
 11
7721.28125
 21
4936
  0
LINE
  8
_0-1_
  6
CONTINUOUS
 62
    7
 10
7721.28125
 20
4936
 11
6721.28125
 21
4936
  0
LINE
  8
_0-1_
  6
CONTINUOUS
 62
    7
 10
6721.28125
 20
4936
 11
6721.28125
 21
4916
  0
LINE
  8
_0-1_
  6
CONTINUOUS
 62
    7
 10
6871.28125
 20
4936
 11
6821.28125
 21
4936
  0
LINE
  8
_0-1_
  6
CONTINUOUS
 62
    7
 10
7571.28125
 20
4936
 11
7621.28125
 21
4936
  0
LINE
  8
_0-1_
  6
CONTINUOUS
 62
    7
 10
6721.28125
 20
4256
 11
6971.28125
 21
4256
  0
LINE
  8
_0-1_
  6
CONTINUOUS
 62
    7
 10
6971.28125
 20
4256
 11
6971.28125
 21
4916
  0
LINE
  8
_0-1_
  6
CONTINUOUS
 62
    7
 10
6971.28125
 20
4916
 11
6721.28125
 21
4916
  0
LINE
  8
_0-1_
  6
CONTINUOUS
 62
    7
 10
6721.28125
 20
4916
 11
6721.28125
 21
4256
  0
LINE
  8
_0-1_
  6
CONTINUOUS
 62
    7
 10
7721.28125
 20
4256
 11
7471.28125
 21
4256
  0
LINE
  8
_0-1_
  6
CONTINUOUS
 62
    7
 10
7471.28125
 20
4256
 11
7471.28125
 21
4916
  0
LINE
  8
_0-1_
  6
CONTINUOUS
 62
    7
 10
7721.28125
 20
4916
 11
7721.28125
 21
4256
  0
LINE
  8
_0-1_
  6
CONTINUOUS
 62
    7
 10
6974.4453688297281
 20
4766
 11
7471.28125
 21
4766
  0
LINE
  8
_0-1_
  6
CONTINUOUS
 62
    7
 10
6974.4453688297281
 20
4746
 11
7471.28125
 21
4746
  0
LINE
  8
_0-1_
  6
CONTINUOUS
 62
    7
 10
6741.28125
 20
4256
 11
6766.28125
 21
4256
  0
LINE
  8
_0-1_
  6
CONTINUOUS
 62
    7
 10
6971.28125
 20
4256
 11
6951.28125
 21
4256
  0
LINE
  8
_0-1_
  6
CONTINUOUS
 62
    7
 10
6926.28125
 20
4256
 11
6951.28125
 21
4256
  0
LINE
  8
_0-1_
  6
CONTINUOUS
 62
    7
 10
7701.28125
 20
4256
 11
7676.28125
 21
4256
  0
LINE
  8
_0-1_
  6
CONTINUOUS
 62
    7
 10
7516.28125
 20
4256
 11
7491.28125
 21
4256
  0
LINE
  8
_0-0_LAYER_1
  6
CENTER1
 62
    5
 10
7221.28125
 20
8769.8846187424242
 11
7221.28125
 21
3044.1145833333335
  0
LINE
  8
_0-1_
  6
CONTINUOUS
 62
    7
 10
7021.28125
 20
4936
 11
7021.28125
 21
4986
  0
LINE
  8
_0-1_
  6
CONTINUOUS
 62
    7
 10
7045.2812499999991
 20
4936
 11
7045.2812499999991
 21
4986
  0
LINE
  8
_0-1_
  6
CONTINUOUS
 62
    7
 10
7421.28125
 20
4936
 11
7421.28125
 21
4986
  0
LINE
  8
_0-1_
  6
CONTINUOUS
 62
    7
 10
7397.28125
 20
4936
 11
7397.28125
 21
4986
  0
LINE
  8
_0-1_
  6
CONTINUOUS
 62
    7
 10
7576.28125
 20
5018
 11
6866.28125
 21
5018
  0
LINE
  8
_0-1_
  6
CONTINUOUS
 62
    7
 10
6866.28125
 20
5006
 11
6866.28125
 21
5018
  0
LINE
  8
_0-1_
  6
CONTINUOUS
 62
    7
 10
7576.28125
 20
5018
 11
7576.28125
 21
5006
  0
LINE
  8
_0-1_
  6
CONTINUOUS
 62
    7
 10
6896.28125
 20
5018
 11
7546.28125
 21
5018
  0
LINE
  8
_0-1_
  6
CONTINUOUS
 62
    7
 10
6921.28125
 20
5043
 11
7521.28125
 21
5043
  0
LINE
  8
_0-1_
  6
CONTINUOUS
 62
    7
 10
6741.28125
 20
4248
 11
6741.28125
 21
4256
  0
LINE
  8
_0-1_
  6
CONTINUOUS
 62
    7
 10
6766.28125
 20
4256
 11
6766.28125
 21
4248
  0
LINE
  8
_0-1_
  6
CONTINUOUS
 62
    7
 10
6741.28125
 20
4248
 11
6766.28125
 21
4248
  0
LINE
  8
_0-1_
  6
CONTINUOUS
 62
    7
 10
6926.28125
 20
4248
 11
6926.28125
 21
4256
  0
LINE
  8
_0-1_
  6
CONTINUOUS
 62
    7
 10
6951.28125
 20
4256
 11
6951.28125
 21
4248
  0
LINE
  8
_0-1_
  6
CONTINUOUS
 62
    7
 10
7491.28125
 20
4256
 11
7491.28125
 21
4248
  0
LINE
  8
_0-1_
  6
CONTINUOUS
 62
    7
 10
7516.28125
 20
4249.8860312266679
 11
7516.28125
 21
4256
  0
LINE
  8
_0-1_
  6
CONTINUOUS
 62
    7
 10
7516.28125
 20
4248
 11
7516.28125
 21
4248.1720763564508
  0
LINE
  8
_0-1_
  6
CONTINUOUS
 62
    7
 10
7516.28125
 20
4248.1720763564508
 11
7516.28125
 21
4249.8860312266679
  0
LINE
  8
_0-1_
  6
CONTINUOUS
 62
    7
 10
6926.28125
 20
4248
 11
6951.28125
 21
4248
  0
LINE
  8
_0-1_
  6
CONTINUOUS
 62
    7
 10
7491.28125
 20
4248
 11
7516.28125
 21
4248
  0
LINE
  8
_0-1_
  6
CONTINUOUS
 62
    7
 10
7701.28125
 20
4248
 11
7701.28125
 21
4256
  0
LINE
  8
_0-1_
  6
CONTINUOUS
 62
    7
 10
7676.28125
 20
4256
 11
7676.28125
 21
4248
  0
LINE
  8
_0-1_
  6
CONTINUOUS
 62
    7
 10
7676.28125
 20
4248
 11
7701.28125
 21
4248
  0
LINE
  8
_0-1_
  6
CONTINUOUS
 62
    7
 10
6826.28125
 20
4986
 11
6826.28125
 21
4936
  0
LINE
  8
_0-1_
  6
CONTINUOUS
 62
    7
 10
6866.28125
 20
4986
 11
6866.28125
 21
4936
  0
LINE
  8
_0-1_
  6
CONTINUOUS
 62
    7
 10
7571.28125
 20
4986
 11
7621.28125
 21
4986
  0
LINE
  8
_0-1_
  6
CONTINUOUS
 62
    7
 10
7571.28125
 20
4936
 11
7621.28125
 21
4936
  0
LINE
  8
_0-1_
  6
CONTINUOUS
 62
    7
 10
7616.28125
 20
4986
 11
7616.28125
 21
4936
  0
LINE
  8
_0-1_
  6
CONTINUOUS
 62
    7
 10
7576.28125
 20
4986
 11
7576.28125
 21
4936
  0
LINE
  8
_0-1_
  6
CONTINUOUS
 62
    7
 10
6921.28125
 20
5900.0647265585958
 11
6921.28125
 21
5043
  0
ARC
  8
_0-1_
  6
CONTINUOUS
 62
    7
 10
6931.2812500000009
 20
5900.0647265585958
 40
10
 50
102.95862920595926
 51
180.00000000000051
  0
LINE
  8
_0-1_
  6
CONTINUOUS
 62
    7
 10
6896.28125
 20
5900.0647265585958
 11
6896.28125
 21
5018
  0
ARC
  8
_0-1_
  6
CONTINUOUS
 62
    7
 10
6931.2812500000009
 20
5900.0647265585958
 40
35
 50
102.9586292059589
 51
180
  0
LINE
  8
_0-1_
  6
CONTINUOUS
 62
    7
 10
7521.28125
 20
5043
 11
7521.28125
 21
5900.0647265585958
  0
ARC
  8
_0-1_
  6
CONTINUOUS
 62
    7
 10
7221.28125
 20
4639.7857142857129
 40
1303.2142857142871
 50
77.041370794041043
 51
102.95862920595897
  0
ARC
  8
_0-1_
  6
CONTINUOUS
 62
    7
 10
7511.28125
 20
5900.0647265585958
 40
10
 50
0
 51
77.041370794041001
  0
ARC
  8
_0-1_
  6
CONTINUOUS
 62
    7
 10
7221.28125
 20
4639.7857142857129
 40
1328.2142857142871
 50
77.041370794041043
 51
102.95862920595897
  0
LINE
  8
_0-1_
  6
CONTINUOUS
 62
    7
 10
7546.28125
 20
5018
 11
7546.28125
 21
5900.0647265585958
  0
ARC
  8
_0-1_
  6
CONTINUOUS
 62
    7
 10
7511.28125
 20
5900.0647265585958
 40
35
 50
0
 51
77.041370794041001
  0
LINE
  8
_0-1_
  6
CONTINUOUS
 62
    7
 10
6896.28125
 20
7299.3898073136879
 11
7546.28125
 21
7299.3898073136879
  0
LINE
  8
_0-1_
  6
CONTINUOUS
 62
    7
 10
7546.28125
 20
7299.3898073136879
 11
7546.28125
 21
7354.3898073136861
  0
LINE
  8
_0-1_
  6
CONTINUOUS
 62
    7
 10
7546.28125
 20
7354.3898073136861
 11
6896.28125
 21
7354.3898073136861
  0
LINE
  8
_0-1_
  6
CONTINUOUS
 62
    7
 10
6896.28125
 20
7354.3898073136861
 11
6896.28125
 21
7299.3898073136879
  0
LINE
  8
_0-1_
  6
CONTINUOUS
 62
    7
 10
7576.28125
 20
7383.3898073136861
 11
6866.28125
 21
7383.3898073136861
  0
LINE
  8
_0-1_
  6
CONTINUOUS
 62
    7
 10
6866.28125
 20
7383.3898073136861
 11
6866.28125
 21
7270.389807313687
  0
LINE
  8
_0-1_
  6
CONTINUOUS
 62
    7
 10
7576.28125
 20
7270.389807313687
 11
6866.28125
 21
7270.389807313687
  0
LINE
  8
_0-1_
  6
CONTINUOUS
 62
    7
 10
7576.28125
 20
7270.389807313687
 11
7576.28125
 21
7383.3898073136861
  0
ARC
  8
_0-1_
  6
CONTINUOUS
 62
    7
 10
6971.28125
 20
7326.889807313687
 40
250
 50
90
 51
270
  0
LINE
  8
_0-1_
  6
CONTINUOUS
 62
    7
 10
6971.28125
 20
7076.889807313687
 11
7471.28125
 21
7076.889807313687
  0
LINE
  8
_0-1_
  6
CONTINUOUS
 62
    7
 10
7471.28125
 20
7576.889807313687
 11
6971.28125
 21
7576.889807313687
  0
ARC
  8
_0-1_
  6
CONTINUOUS
 62
    7
 10
7471.28125
 20
7326.889807313687
 40
250
 50
270
 51
90
  0
LINE
  8
_0-1_
  6
CONTINUOUS
 62
    7
 10
8459.2449590428696
 20
4986
 11
8459.2449590428696
 21
4936
  0
LINE
  8
_0-1_
  6
CONTINUOUS
 62
    7
 10
8516.7449590428696
 20
4916
 11
8191.7449590428705
 21
4916
  0
LINE
  8
_0-1_
  6
CONTINUOUS
 62
    7
 10
8191.7449590428705
 20
4916
 11
8191.7449590428705
 21
4936
  0
LINE
  8
_0-1_
  6
CONTINUOUS
 62
    7
 10
8191.7449590428705
 20
4986
 11
8191.7449590428705
 21
5006
  0
LINE
  8
_0-1_
  6
CONTINUOUS
 62
    7
 10
8191.7449590428705
 20
4256.1042715142294
 11
8191.7449590428705
 21
4916
  0
LINE
  8
_0-1_
  6
CONTINUOUS
 62
    7
 10
8236.7449590428714
 20
4256
 11
8211.7449590428714
 21
4256
  0
LINE
  8
_0-1_
  6
CONTINUOUS
 62
    7
 10
8211.7449590428714
 20
4256
 11
8211.7449590428714
 21
4248
  0
LINE
  8
_0-1_
  6
CONTINUOUS
 62
    7
 10
8236.7449590428714
 20
4249.8860312266679
 11
8236.7449590428714
 21
4256
  0
LINE
  8
_0-1_
  6
CONTINUOUS
 62
    7
 10
8236.7449590428714
 20
4248
 11
8236.7449590428714
 21
4248.1720763564508
  0
LINE
  8
_0-1_
  6
CONTINUOUS
 62
    7
 10
8236.7449590428714
 20
4248.1720763564508
 11
8236.7449590428714
 21
4249.8860312266679
  0
LINE
  8
_0-1_
  6
CONTINUOUS
 62
    7
 10
8211.7449590428714
 20
4248
 11
8236.7449590428714
 21
4248
  0
LINE
  8
_0-1_
  6
CONTINUOUS
 62
    7
 10
8416.7449590428696
 20
4986
 11
8466.7449590428696
 21
4986
  0
LINE
  8
_0-1_
  6
CONTINUOUS
 62
    7
 10
8466.7449590428696
 20
4936
 11
8416.7449590428696
 21
4936
  0
LINE
  8
_0-1_
  6
DASHED2
 62
    7
 10
8247.7449590428696
 20
4866
 11
8339.7449590428714
 21
4866
  0
LINE
  8
_0-1_
  6
DASHED2
 62
    7
 10
8339.7449590428714
 20
4866
 11
8339.7449590428714
 21
4831
  0
LINE
  8
_0-1_
  6
DASHED2
 62
    7
 10
8339.7449590428714
 20
4831
 11
8247.7449590428696
 21
4831
  0
LINE
  8
_0-1_
  6
DASHED2
 62
    7
 10
8247.7449590428696
 20
4831
 11
8247.7449590428696
 21
4866
  0
LINE
  8
_0-1_
  6
DASHED2
 62
    7
 10
8279.7449590428714
 20
4837.5
 11
8307.7449590428696
 21
4837.5
  0
LINE
  8
_0-1_
  6
DASHED2
 62
    7
 10
8307.7449590428696
 20
4837.5
 11
8307.7449590428696
 21
4859.5
  0
LINE
  8
_0-1_
  6
DASHED2
 62
    7
 10
8307.7449590428696
 20
4859.5
 11
8279.7449590428714
 21
4859.5
  0
LINE
  8
_0-1_
  6
DASHED2
 62
    7
 10
8279.7449590428714
 20
4859.5
 11
8279.7449590428714
 21
4837.5
  0
LINE
  8
_0-1_
  6
DASHED2
 62
    7
 10
8285.7449590428696
 20
4843.5
 11
8287.7449590428714
 21
4843.5
  0
LINE
  8
_0-1_
  6
DASHED2
 62
    7
 10
8287.7449590428714
 20
4843.5
 11
8287.7449590428714
 21
4853.5
  0
LINE
  8
_0-1_
  6
DASHED2
 62
    7
 10
8287.7449590428714
 20
4853.5
 11
8285.7449590428696
 21
4853.5
  0
LINE
  8
_0-1_
  6
DASHED2
 62
    7
 10
8285.7449590428696
 20
4853.5
 11
8285.7449590428696
 21
4843.5
  0
LINE
  8
_0-1_
  6
DASHED2
 62
    7
 10
8299.7449590428696
 20
4843.5
 11
8301.7449590428714
 21
4843.5
  0
LINE
  8
_0-1_
  6
DASHED2
 62
    7
 10
8301.7449590428714
 20
4843.5
 11
8301.7449590428714
 21
4853.5
  0
LINE
  8
_0-1_
  6
DASHED2
 62
    7
 10
8301.7449590428714
 20
4853.5
 11
8299.7449590428696
 21
4853.5
  0
LINE
  8
_0-1_
  6
DASHED2
 62
    7
 10
8299.7449590428696
 20
4853.5
 11
8299.7449590428696
 21
4843.5
  0
LINE
  8
_0-1_
  6
CONTINUOUS
 62
    7
 10
8191.7449590428705
 20
4256
 11
8691.7449590428696
 21
4256
  0
LINE
  8
_0-1_
  6
CONTINUOUS
 62
    7
 10
8191.7449590428705
 20
4916
 11
8691.7449590428696
 21
4916
  0
LINE
  8
_0-1_
  6
CONTINUOUS
 62
    7
 10
8191.7449590428705
 20
4936
 11
8691.7449590428696
 21
4936
  0
LINE
  8
_0-1_
  6
CONTINUOUS
 62
    7
 10
8191.7449590428705
 20
5006
 11
8691.7449590428696
 21
5006
  0
LINE
  8
_0-1_
  6
CONTINUOUS
 62
    7
 10
8691.7449590428696
 20
4986
 11
8191.7449590428705
 21
4986
  0
LINE
  8
_0-1_
  6
CONTINUOUS
 62
    7
 10
8384.2449590428696
 20
5018
 11
8469.2449590428714
 21
5018
  0
LINE
  8
_0-1_
  6
CONTINUOUS
 62
    7
 10
8384.2449590428696
 20
5006
 11
8384.2449590428696
 21
5018
  0
LINE
  8
_0-1_
  6
CONTINUOUS
 62
    7
 10
8384.2449590428696
 20
5018
 11
8499.2449590428714
 21
5018
  0
LINE
  8
_0-1_
  6
CONTINUOUS
 62
    7
 10
8499.2449590428714
 20
5018
 11
8499.2449590428714
 21
5006
  0
LINE
  8
_0-1_
  6
CONTINUOUS
 62
    7
 10
8384.2449590428696
 20
5006
 11
8499.2449590428714
 21
5006
  0
LINE
  8
_0-1_
  6
CONTINUOUS
 62
    7
 10
8414.2449590428696
 20
5018
 11
8469.2449590428714
 21
5018
  0
LINE
  8
_0-1_
  6
CONTINUOUS
 62
    7
 10
8469.2449590428714
 20
5018
 11
8469.2449590428714
 21
5968
  0
LINE
  8
_0-1_
  6
CONTINUOUS
 62
    7
 10
8469.2449590428714
 20
5968
 11
8414.2449590428696
 21
5968
  0
LINE
  8
_0-1_
  6
CONTINUOUS
 62
    7
 10
8414.2449590428696
 20
5968
 11
8414.2449590428696
 21
5018
  0
LINE
  8
_0-1_
  6
CONTINUOUS
 62
    7
 10
8691.7449590428696
 20
5006
 11
8691.7449590428696
 21
4986
  0
LINE
  8
_0-1_
  6
CONTINUOUS
 62
    7
 10
8691.7449590428696
 20
4936
 11
8691.7449590428696
 21
4256
  0
LINE
  8
_0-1_
  6
CONTINUOUS
 62
    7
 10
8424.2449590428714
 20
4986
 11
8424.2449590428714
 21
4936
  0
LINE
  8
_0-1_
  6
CONTINUOUS
 62
    7
 10
8424.2449590428714
 20
4986
 11
8459.2449590428696
 21
4986
  0
LINE
  8
_0-1_
  6
CONTINUOUS
 62
    7
 10
8459.2449590428696
 20
4936
 11
8424.2449590428714
 21
4936
  0
LINE
  8
_0-1_
  6
CONTINUOUS
 62
    7
 10
8424.2449590428714
 20
4936
 11
8424.2449590428714
 21
4986
  0
LINE
  8
_0-0_LAYER_1
  6
CENTER1
 62
    5
 10
8441.7449590428696
 20
6971.3490204939644
 11
8441.7449590428696
 21
3054.7282307265668
  0
LINE
  8
_0-1_
  6
CONTINUOUS
 62
    7
 10
8241.7449590428696
 20
4936
 11
8281.7449590428714
 21
4936
  0
LINE
  8
_0-1_
  6
CONTINUOUS
 62
    7
 10
8281.7449590428714
 20
4936
 11
8281.7449590428714
 21
4986
  0
LINE
  8
_0-1_
  6
CONTINUOUS
 62
    7
 10
8281.7449590428714
 20
4986
 11
8241.7449590428696
 21
4986
  0
LINE
  8
_0-1_
  6
CONTINUOUS
 62
    7
 10
8241.7449590428696
 20
4986
 11
8241.7449590428696
 21
4936
  0
LINE
  8
_0-1_
  6
CONTINUOUS
 62
    7
 10
8641.7449590428696
 20
4936
 11
8601.7449590428696
 21
4936
  0
LINE
  8
_0-1_
  6
CONTINUOUS
 62
    7
 10
8601.7449590428696
 20
4936
 11
8601.7449590428696
 21
4986
  0
LINE
  8
_0-1_
  6
CONTINUOUS
 62
    7
 10
8601.7449590428696
 20
4986
 11
8641.7449590428696
 21
4986
  0
LINE
  8
_0-1_
  6
CONTINUOUS
 62
    7
 10
8641.7449590428696
 20
4986
 11
8641.7449590428696
 21
4936
  0
LINE
  8
_0-1_
  6
CONTINUOUS
 62
    7
 10
8454.2449590428696
 20
4256
 11
8429.2449590428696
 21
4256
  0
LINE
  8
_0-1_
  6
CONTINUOUS
 62
    7
 10
8429.2449590428696
 20
4256
 11
8429.2449590428696
 21
4248
  0
LINE
  8
_0-1_
  6
CONTINUOUS
 62
    7
 10
8454.2449590428696
 20
4249.8860312266679
 11
8454.2449590428696
 21
4256
  0
LINE
  8
_0-1_
  6
CONTINUOUS
 62
    7
 10
8454.2449590428696
 20
4248
 11
8454.2449590428696
 21
4248.1720763564508
  0
LINE
  8
_0-1_
  6
CONTINUOUS
 62
    7
 10
8454.2449590428696
 20
4248.1720763564508
 11
8454.2449590428696
 21
4249.8860312266679
  0
LINE
  8
_0-1_
  6
CONTINUOUS
 62
    7
 10
8429.2449590428696
 20
4248
 11
8454.2449590428696
 21
4248
  0
LINE
  8
_0-1_
  6
CONTINUOUS
 62
    7
 10
8646.7449590428696
 20
4256
 11
8671.7449590428696
 21
4256
  0
LINE
  8
_0-1_
  6
CONTINUOUS
 62
    7
 10
8671.7449590428696
 20
4256
 11
8671.7449590428696
 21
4248
  0
LINE
  8
_0-1_
  6
CONTINUOUS
 62
    7
 10
8646.7449590428696
 20
4249.8860312266679
 11
8646.7449590428696
 21
4256
  0
LINE
  8
_0-1_
  6
CONTINUOUS
 62
    7
 10
8646.7449590428696
 20
4248
 11
8646.7449590428696
 21
4248.1720763564508
  0
LINE
  8
_0-1_
  6
CONTINUOUS
 62
    7
 10
8646.7449590428696
 20
4248.1720763564508
 11
8646.7449590428696
 21
4249.8860312266679
  0
LINE
  8
_0-1_
  6
CONTINUOUS
 62
    7
 10
8671.7449590428696
 20
4248
 11
8646.7449590428696
 21
4248
  0
LINE
  8
_0-1_
  6
DASHED2
 62
    7
 10
8635.7449590428696
 20
4866
 11
8543.7449590428696
 21
4866
  0
LINE
  8
_0-1_
  6
DASHED2
 62
    7
 10
8543.7449590428696
 20
4866
 11
8543.7449590428696
 21
4831
  0
LINE
  8
_0-1_
  6
DASHED2
 62
    7
 10
8543.7449590428696
 20
4831
 11
8635.7449590428696
 21
4831
  0
LINE
  8
_0-1_
  6
DASHED2
 62
    7
 10
8635.7449590428696
 20
4831
 11
8635.7449590428696
 21
4866
  0
LINE
  8
_0-1_
  6
DASHED2
 62
    7
 10
8603.7449590428714
 20
4837.5
 11
8575.7449590428714
 21
4837.5
  0
LINE
  8
_0-1_
  6
DASHED2
 62
    7
 10
8575.7449590428714
 20
4837.5
 11
8575.7449590428714
 21
4859.5
  0
LINE
  8
_0-1_
  6
DASHED2
 62
    7
 10
8575.7449590428714
 20
4859.5
 11
8603.7449590428714
 21
4859.5
  0
LINE
  8
_0-1_
  6
DASHED2
 62
    7
 10
8603.7449590428714
 20
4859.5
 11
8603.7449590428714
 21
4837.5
  0
LINE
  8
_0-1_
  6
DASHED2
 62
    7
 10
8597.7449590428696
 20
4843.5
 11
8595.7449590428714
 21
4843.5
  0
LINE
  8
_0-1_
  6
DASHED2
 62
    7
 10
8595.7449590428714
 20
4843.5
 11
8595.7449590428714
 21
4853.5
  0
LINE
  8
_0-1_
  6
DASHED2
 62
    7
 10
8595.7449590428714
 20
4853.5
 11
8597.7449590428696
 21
4853.5
  0
LINE
  8
_0-1_
  6
DASHED2
 62
    7
 10
8597.7449590428696
 20
4853.5
 11
8597.7449590428696
 21
4843.5
  0
LINE
  8
_0-1_
  6
DASHED2
 62
    7
 10
8583.7449590428696
 20
4843.5
 11
8581.7449590428714
 21
4843.5
  0
LINE
  8
_0-1_
  6
DASHED2
 62
    7
 10
8581.7449590428714
 20
4843.5
 11
8581.7449590428714
 21
4853.5
  0
LINE
  8
_0-1_
  6
DASHED2
 62
    7
 10
8581.7449590428714
 20
4853.5
 11
8583.7449590428696
 21
4853.5
  0
LINE
  8
_0-1_
  6
DASHED2
 62
    7
 10
8583.7449590428696
 20
4853.5
 11
8583.7449590428696
 21
4843.5
  0
LINE
  8
_0-1_
  6
CONTINUOUS
 62
    7
 10
6971.28125
 20
4831
 11
6979.28125
 21
4831
  0
LINE
  8
_0-1_
  6
CONTINUOUS
 62
    7
 10
6979.28125
 20
4831
 11
6979.28125
 21
4866
  0
LINE
  8
_0-1_
  6
CONTINUOUS
 62
    7
 10
6979.28125
 20
4866
 11
6971.28125
 21
4866
  0
LINE
  8
_0-1_
  6
CONTINUOUS
 62
    7
 10
6971.28125
 20
4866
 11
6971.28125
 21
4831
  0
LINE
  8
_0-1_
  6
CONTINUOUS
 62
    7
 10
7471.28125
 20
4831
 11
7463.28125
 21
4831
  0
LINE
  8
_0-1_
  6
CONTINUOUS
 62
    7
 10
7463.28125
 20
4831
 11
7463.28125
 21
4866
  0
LINE
  8
_0-1_
  6
CONTINUOUS
 62
    7
 10
7463.28125
 20
4866
 11
7471.28125
 21
4866
  0
LINE
  8
_0-1_
  6
CONTINUOUS
 62
    7
 10
7471.28125
 20
4866
 11
7471.28125
 21
4831
  0
ENDSEC
  0
EOF
