  0
SECTION
  2
HEADER
  9
$ACADVER
  1
AC1018
  9
$ACADMAINTVER
 70
     0
  9
$DWGCODEPAGE
  3
ASCII
  9
$INSBASE
 10
0.0
 20
0.0
 30
0.0
  9
$EXTMIN
 10
1.000000000000000E+20
 20
1.000000000000000E+20
 30
1.000000000000000E+20
  9
$EXTMAX
 10
-1.000000000000000E+20
 20
-1.000000000000000E+20
 30
-1.000000000000000E+20
  9
$LIMMIN
 10
0.0
 20
0.0
  9
$LIMMAX
 10
12.0
 20
9.0
  9
$ORTHOMODE
 70
     0
  9
$REGENMODE
 70
     1
  9
$FILLMODE
 70
     1
  9
$QTEXTMODE
 70
     0
  9
$MIRRTEXT
 70
     1
  9
$LTSCALE
 40
1.0
  9
$ATTMODE
 70
     1
  9
$TEXTSIZE
 40
0.2
  9
$TRACEWID
 40
0.05
  9
$TEXTSTYLE
  7
Standard
  9
$CLAYER
  8
0
  9
$CELTYPE
  6
ByLayer
  9
$CECOLOR
 62
   256
  9
$CELTSCALE
 40
1.0
  9
$DISPSILH
 70
     0
  9
$DIMSCALE
 40
1.0
  9
$DIMASZ
 40
0.18
  9
$DIMEXO
 40
0.0625
  9
$DIMDLI
 40
0.38
  9
$DIMRND
 40
0.0
  9
$DIMDLE
 40
0.0
  9
$DIMEXE
 40
0.18
  9
$DIMTP
 40
0.0
  9
$DIMTM
 40
0.0
  9
$DIMTXT
 40
0.18
  9
$DIMCEN
 40
0.09
  9
$DIMTSZ
 40
0.0
  9
$DIMTOL
 70
     0
  9
$DIMLIM
 70
     0
  9
$DIMTIH
 70
     1
  9
$DIMTOH
 70
     1
  9
$DIMSE1
 70
     0
  9
$DIMSE2
 70
     0
  9
$DIMTAD
 70
     0
  9
$DIMZIN
 70
     0
  9
$DIMBLK
  1

  9
$DIMASO
 70
     1
  9
$DIMSHO
 70
     1
  9
$DIMPOST
  1

  9
$DIMAPOST
  1

  9
$DIMALT
 70
     0
  9
$DIMALTD
 70
     2
  9
$DIMALTF
 40
25.4
  9
$DIMLFAC
 40
1.0
  9
$DIMTOFL
 70
     0
  9
$DIMTVP
 40
0.0
  9
$DIMTIX
 70
     0
  9
$DIMSOXD
 70
     0
  9
$DIMSAH
 70
     0
  9
$DIMBLK1
  1

  9
$DIMBLK2
  1

  9
$DIMSTYLE
  2
Standard
  9
$DIMCLRD
 70
     0
  9
$DIMCLRE
 70
     0
  9
$DIMCLRT
 70
     0
  9
$DIMTFAC
 40
1.0
  9
$DIMGAP
 40
0.09
  9
$DIMJUST
 70
     0
  9
$DIMSD1
 70
     0
  9
$DIMSD2
 70
     0
  9
$DIMTOLJ
 70
     1
  9
$DIMTZIN
 70
     0
  9
$DIMALTZ
 70
     0
  9
$DIMALTTZ
 70
     0
  9
$DIMUPT
 70
     0
  9
$DIMDEC
 70
     4
  9
$DIMTDEC
 70
     4
  9
$DIMALTU
 70
     2
  9
$DIMALTTD
 70
     2
  9
$DIMTXSTY
  7
Standard
  9
$DIMAUNIT
 70
     0
  9
$DIMADEC
 70
     0
  9
$DIMALTRND
 40
0.0
  9
$DIMAZIN
 70
     0
  9
$DIMDSEP
 70
    46
  9
$DIMATFIT
 70
     3
  9
$DIMFRAC
 70
     0
  9
$DIMLDRBLK
  1

  9
$DIMLUNIT
 70
     2
  9
$DIMLWD
 70
    -2
  9
$DIMLWE
 70
    -2
  9
$DIMTMOVE
 70
     0
  9
$LUNITS
 70
     2
  9
$LUPREC
 70
     4
  9
$SKETCHINC
 40
0.1
  9
$FILLETRAD
 40
0.5
  9
$AUNITS
 70
     0
  9
$AUPREC
 70
     0
  9
$MENU
  1
.
  9
$ELEVATION
 40
0.0
  9
$PELEVATION
 40
0.0
  9
$THICKNESS
 40
0.0
  9
$LIMCHECK
 70
     0
  9
$CHAMFERA
 40
0.5
  9
$CHAMFERB
 40
0.5
  9
$CHAMFERC
 40
1.0
  9
$CHAMFERD
 40
0.0
  9
$SKPOLY
 70
     0
  9
$TDCREATE
 40
2457135.700857801
  9
$TDUCREATE
 40
2457135.325857801
  9
$TDUPDATE
 40
2457135.700857813
  9
$TDUUPDATE
 40
2457135.325857813
  9
$TDINDWG
 40
0.0000000116
  9
$TDUSRTIMER
 40
0.0000000116
  9
$USRTIMER
 70
     1
  9
$ANGBASE
 50
0.0
  9
$ANGDIR
 70
     0
  9
$PDMODE
 70
     0
  9
$PDSIZE
 40
0.0
  9
$PLINEWID
 40
0.0
  9
$SPLFRAME
 70
     0
  9
$SPLINETYPE
 70
     6
  9
$SPLINESEGS
 70
     8
  9
$HANDSEED
  5
DD
  9
$SURFTAB1
 70
     6
  9
$SURFTAB2
 70
     6
  9
$SURFTYPE
 70
     6
  9
$SURFU
 70
     6
  9
$SURFV
 70
     6
  9
$UCSBASE
  2

  9
$UCSNAME
  2

  9
$UCSORG
 10
0.0
 20
0.0
 30
0.0
  9
$UCSXDIR
 10
1.0
 20
0.0
 30
0.0
  9
$UCSYDIR
 10
0.0
 20
1.0
 30
0.0
  9
$UCSORTHOREF
  2

  9
$UCSORTHOVIEW
 70
     0
  9
$UCSORGTOP
 10
0.0
 20
0.0
 30
0.0
  9
$UCSORGBOTTOM
 10
0.0
 20
0.0
 30
0.0
  9
$UCSORGLEFT
 10
0.0
 20
0.0
 30
0.0
  9
$UCSORGRIGHT
 10
0.0
 20
0.0
 30
0.0
  9
$UCSORGFRONT
 10
0.0
 20
0.0
 30
0.0
  9
$UCSORGBACK
 10
0.0
 20
0.0
 30
0.0
  9
$PUCSBASE
  2

  9
$PUCSNAME
  2

  9
$PUCSORG
 10
0.0
 20
0.0
 30
0.0
  9
$PUCSXDIR
 10
1.0
 20
0.0
 30
0.0
  9
$PUCSYDIR
 10
0.0
 20
1.0
 30
0.0
  9
$PUCSORTHOREF
  2

  9
$PUCSORTHOVIEW
 70
     0
  9
$PUCSORGTOP
 10
0.0
 20
0.0
 30
0.0
  9
$PUCSORGBOTTOM
 10
0.0
 20
0.0
 30
0.0
  9
$PUCSORGLEFT
 10
0.0
 20
0.0
 30
0.0
  9
$PUCSORGRIGHT
 10
0.0
 20
0.0
 30
0.0
  9
$PUCSORGFRONT
 10
0.0
 20
0.0
 30
0.0
  9
$PUCSORGBACK
 10
0.0
 20
0.0
 30
0.0
  9
$USERI1
 70
     0
  9
$USERI2
 70
     0
  9
$USERI3
 70
     0
  9
$USERI4
 70
     0
  9
$USERI5
 70
     0
  9
$USERR1
 40
0.0
  9
$USERR2
 40
0.0
  9
$USERR3
 40
0.0
  9
$USERR4
 40
0.0
  9
$USERR5
 40
0.0
  9
$WORLDVIEW
 70
     1
  9
$SHADEDGE
 70
     3
  9
$SHADEDIF
 70
    70
  9
$TILEMODE
 70
     1
  9
$MAXACTVP
 70
    64
  9
$PINSBASE
 10
0.0
 20
0.0
 30
0.0
  9
$PLIMCHECK
 70
     0
  9
$PEXTMIN
 10
1.000000000000000E+20
 20
1.000000000000000E+20
 30
1.000000000000000E+20
  9
$PEXTMAX
 10
-1.000000000000000E+20
 20
-1.000000000000000E+20
 30
-1.000000000000000E+20
  9
$PLIMMIN
 10
0.0
 20
0.0
  9
$PLIMMAX
 10
12.0
 20
9.0
  9
$UNITMODE
 70
     0
  9
$VISRETAIN
 70
     1
  9
$PLINEGEN
 70
     0
  9
$PSLTSCALE
 70
     1
  9
$TREEDEPTH
 70
  3020
  9
$CMLSTYLE
  2
Standard
  9
$CMLJUST
 70
     0
  9
$CMLSCALE
 40
1.0
  9
$PROXYGRAPHICS
 70
     1
  9
$MEASUREMENT
 70
     0
  9
$CELWEIGHT
370
    -1
  9
$ENDCAPS
280
     0
  9
$JOINSTYLE
280
     0
  9
$LWDISPLAY
290
     1
  9
$INSUNITS
 70
     1
  9
$HYPERLINKBASE
  1

  9
$STYLESHEET
  1

  9
$XEDIT
290
     1
  9
$CEPSNTYPE
380
     0
  9
$PSTYLEMODE
290
     1
  9
$FINGERPRINTGUID
  2
{42C9FB5C-3B1F-41F0-90AA-148D516BD845}
  9
$VERSIONGUID
  2
{FAEB1C32-E019-11D5-929B-00C0DF256EC4}
  9
$EXTNAMES
290
     1
  9
$PSVPSCALE
 40
0.0
  9
$OLESTARTUP
290
     0
  9
$SORTENTS
280
   127
  9
$INDEXCTL
280
     0
  9
$HIDETEXT
280
     1
  9
$XCLIPFRAME
290
     0
  9
$HALOGAP
280
     0
  9
$OBSCOLOR
 70
   257
  9
$OBSLTYPE
280
     0
  9
$INTERSECTIONDISPLAY
280
     0
  9
$INTERSECTIONCOLOR
 70
   257
  9
$DIMASSOC
280
     2
  9
$PROJECTNAME
  1

  0
ENDSEC
  0
SECTION
  2
CLASSES
  0
CLASS
  1
ACDBDICTIONARYWDFLT
  2
AcDbDictionaryWithDefault
  3
ObjectDBX Classes
 90
        0
 91
        3
280
     0
281
     0
  0
CLASS
  1
VISUALSTYLE
  2
AcDbVisualStyle
  3
ObjectDBX Classes
 90
     4095
 91
        3
280
     0
281
     0
  0
ENDSEC
  0
SECTION
  2
TABLES
  0
TABLE
  2
VPORT
  5
8
330
0
100
AcDbSymbolTable
 70
     1
  0
VPORT
  5
29
330
8
100
AcDbSymbolTableRecord
100
AcDbViewportTableRecord
  2
*Active
 70
     0
 10
0.0
 20
0.0
 11
1.0
 21
1.0
 12
0.0
 22
0.0
 13
0.0
 23
0.0
 14
0.5
 24
0.5
 15
0.5
 25
0.5
 16
0.0
 26
0.0
 36
1.0
 17
555.9939057367191
 27
-43.6472354072759
 37
0.0
 40
1756.671121887299
 41
1.097484639376027
 42
50.0
 43
0.0
 44
0.0
 50
0.0
 51
0.0
 71
     0
 72
   100
 73
     1
 74
     3
 75
     0
 76
     0
 77
     0
 78
     0
281
     0
 65
     1
110
0.0
120
0.0
130
0.0
111
1.0
121
0.0
131
0.0
112
0.0
122
1.0
132
0.0
 79
     0
146
0.0
  0
ENDTAB
  0
TABLE
  2
LTYPE
  5
5
330
0
100
AcDbSymbolTable
 70
    17
  0
LTYPE
  5
14
330
5
100
AcDbSymbolTableRecord
100
AcDbLinetypeTableRecord
  2
ByBlock
 70
     0
  3

 72
    65
 73
     0
 40
0.0
  0
LTYPE
  5
15
330
5
100
AcDbSymbolTableRecord
100
AcDbLinetypeTableRecord
  2
ByLayer
 70
     0
  3

 72
    65
 73
     0
 40
0.0
  0
LTYPE
  5
16
330
5
100
AcDbSymbolTableRecord
100
AcDbLinetypeTableRecord
  2
Continuous
 70
     0
  3
Solid line
 72
    65
 73
     0
 40
0.0
  0
LTYPE
  5
4F
330
5
100
AcDbSymbolTableRecord
100
AcDbLinetypeTableRecord
  2
AI-Linetype-1
 70
     0
  3
Adobe Illustrator Linetype No. 1
 72
    65
 73
     2
 40
1.390650970213803
 49
0.6953254851069016
 74
     0
 49
-0.6953254851069016
 74
     0
  0
LTYPE
  5
51
330
5
100
AcDbSymbolTableRecord
100
AcDbLinetypeTableRecord
  2
AI-Linetype-2
 70
     0
  3
Adobe Illustrator Linetype No. 2
 72
    65
 73
     2
 40
1.390650970213803
 49
0.6953254851069016
 74
     0
 49
-0.6953254851069016
 74
     0
  0
LTYPE
  5
7A
330
5
100
AcDbSymbolTableRecord
100
AcDbLinetypeTableRecord
  2
AI-Linetype-3
 70
     0
  3
Adobe Illustrator Linetype No. 3
 72
    65
 73
     2
 40
1.390650970213803
 49
0.6953254851069016
 74
     0
 49
-0.6953254851069016
 74
     0
  0
LTYPE
  5
7C
330
5
100
AcDbSymbolTableRecord
100
AcDbLinetypeTableRecord
  2
AI-Linetype-4
 70
     0
  3
Adobe Illustrator Linetype No. 4
 72
    65
 73
     2
 40
1.390650970213803
 49
0.6953254851069016
 74
     0
 49
-0.6953254851069016
 74
     0
  0
LTYPE
  5
7E
330
5
100
AcDbSymbolTableRecord
100
AcDbLinetypeTableRecord
  2
AI-Linetype-5
 70
     0
  3
Adobe Illustrator Linetype No. 5
 72
    65
 73
     2
 40
1.390650970213803
 49
0.6953254851069016
 74
     0
 49
-0.6953254851069016
 74
     0
  0
LTYPE
  5
80
330
5
100
AcDbSymbolTableRecord
100
AcDbLinetypeTableRecord
  2
AI-Linetype-6
 70
     0
  3
Adobe Illustrator Linetype No. 6
 72
    65
 73
     2
 40
1.390650970213803
 49
0.6953254851069016
 74
     0
 49
-0.6953254851069016
 74
     0
  0
LTYPE
  5
82
330
5
100
AcDbSymbolTableRecord
100
AcDbLinetypeTableRecord
  2
AI-Linetype-7
 70
     0
  3
Adobe Illustrator Linetype No. 7
 72
    65
 73
     2
 40
1.390650970213803
 49
0.6953254851069016
 74
     0
 49
-0.6953254851069016
 74
     0
  0
LTYPE
  5
B8
330
5
100
AcDbSymbolTableRecord
100
AcDbLinetypeTableRecord
  2
AI-Linetype-8
 70
     0
  3
Adobe Illustrator Linetype No. 8
 72
    65
 73
     2
 40
1.390650970213803
 49
0.6953254851069016
 74
     0
 49
-0.6953254851069016
 74
     0
  0
LTYPE
  5
BA
330
5
100
AcDbSymbolTableRecord
100
AcDbLinetypeTableRecord
  2
AI-Linetype-9
 70
     0
  3
Adobe Illustrator Linetype No. 9
 72
    65
 73
     2
 40
1.390650970213803
 49
0.6953254851069016
 74
     0
 49
-0.6953254851069016
 74
     0
  0
LTYPE
  5
BC
330
5
100
AcDbSymbolTableRecord
100
AcDbLinetypeTableRecord
  2
AI-Linetype-10
 70
     0
  3
Adobe Illustrator Linetype No. 10
 72
    65
 73
     2
 40
1.390650970213803
 49
0.6953254851069016
 74
     0
 49
-0.6953254851069016
 74
     0
  0
LTYPE
  5
BE
330
5
100
AcDbSymbolTableRecord
100
AcDbLinetypeTableRecord
  2
AI-Linetype-11
 70
     0
  3
Adobe Illustrator Linetype No. 11
 72
    65
 73
     2
 40
1.390650970213803
 49
0.6953254851069016
 74
     0
 49
-0.6953254851069016
 74
     0
  0
LTYPE
  5
C0
330
5
100
AcDbSymbolTableRecord
100
AcDbLinetypeTableRecord
  2
AI-Linetype-12
 70
     0
  3
Adobe Illustrator Linetype No. 12
 72
    65
 73
     2
 40
1.390650970213803
 49
0.6953254851069016
 74
     0
 49
-0.6953254851069016
 74
     0
  0
LTYPE
  5
CD
330
5
100
AcDbSymbolTableRecord
100
AcDbLinetypeTableRecord
  2
AI-Linetype-13
 70
     0
  3
Adobe Illustrator Linetype No. 13
 72
    65
 73
     2
 40
0.9271006187729249
 49
0.4635503093864625
 74
     0
 49
-0.4635503093864625
 74
     0
  0
LTYPE
  5
D2
330
5
100
AcDbSymbolTableRecord
100
AcDbLinetypeTableRecord
  2
AI-Linetype-14
 70
     0
  3
Adobe Illustrator Linetype No. 14
 72
    65
 73
     2
 40
0.9271006187729249
 49
0.4635503093864625
 74
     0
 49
-0.4635503093864625
 74
     0
  0
LTYPE
  5
D4
330
5
100
AcDbSymbolTableRecord
100
AcDbLinetypeTableRecord
  2
AI-Linetype-15
 70
     0
  3
Adobe Illustrator Linetype No. 15
 72
    65
 73
     2
 40
0.9271006187729249
 49
0.4635503093864625
 74
     0
 49
-0.4635503093864625
 74
     0
  0
LTYPE
  5
D6
330
5
100
AcDbSymbolTableRecord
100
AcDbLinetypeTableRecord
  2
AI-Linetype-16
 70
     0
  3
Adobe Illustrator Linetype No. 16
 72
    65
 73
     2
 40
0.9271006187729249
 49
0.4635503093864625
 74
     0
 49
-0.4635503093864625
 74
     0
  0
ENDTAB
  0
TABLE
  2
LAYER
  5
2
330
0
100
AcDbSymbolTable
 70
     2
  0
LAYER
  5
10
330
2
100
AcDbSymbolTableRecord
100
AcDbLayerTableRecord
  2
0
 70
     0
 62
     7
  6
Continuous
370
    -3
390
F
  0
LAYER
  5
3B
330
2
100
AcDbSymbolTableRecord
100
AcDbLayerTableRecord
  2
\U+30EC\U+30A4\U+30E4\U+30FC 1
 70
     0
 62
     7
  6
Continuous
370
    -3
390
F
  0
ENDTAB
  0
TABLE
  2
STYLE
  5
3
330
0
100
AcDbSymbolTable
 70
     1
  0
STYLE
  5
11
330
3
100
AcDbSymbolTableRecord
100
AcDbTextStyleTableRecord
  2
Standard
 70
     0
 40
0.0
 41
1.0
 50
0.0
 71
     0
 42
0.2
  3
txt
  4

  0
ENDTAB
  0
TABLE
  2
VIEW
  5
6
330
0
100
AcDbSymbolTable
 70
     0
  0
ENDTAB
  0
TABLE
  2
UCS
  5
7
330
0
100
AcDbSymbolTable
 70
     0
  0
ENDTAB
  0
TABLE
  2
APPID
  5
9
330
0
100
AcDbSymbolTable
 70
     1
  0
APPID
  5
12
330
9
100
AcDbSymbolTableRecord
100
AcDbRegAppTableRecord
  2
ACAD
 70
     0
  0
ENDTAB
  0
TABLE
  2
DIMSTYLE
  5
A
330
0
100
AcDbSymbolTable
 70
     1
100
AcDbDimStyleTable
  0
DIMSTYLE
105
27
330
A
100
AcDbSymbolTableRecord
100
AcDbDimStyleTableRecord
  2
Standard
 70
     0
340
11
  0
ENDTAB
  0
TABLE
  2
BLOCK_RECORD
  5
1
330
0
100
AcDbSymbolTable
 70
     5
  0
BLOCK_RECORD
  5
1F
330
1
100
AcDbSymbolTableRecord
100
AcDbBlockTableRecord
  2
*Model_Space
340
22
  0
BLOCK_RECORD
  5
1B
330
1
100
AcDbSymbolTableRecord
100
AcDbBlockTableRecord
  2
*Paper_Space
340
1E
  0
BLOCK_RECORD
  5
23
330
1
100
AcDbSymbolTableRecord
100
AcDbBlockTableRecord
  2
*Paper_Space0
340
26
  0
BLOCK_RECORD
  5
3C
330
1
100
AcDbSymbolTableRecord
100
AcDbBlockTableRecord
  2
block 2
340
0
102
{BLKREFS
331
3D
102
}
  0
BLOCK_RECORD
  5
40
330
1
100
AcDbSymbolTableRecord
100
AcDbBlockTableRecord
  2
block 3
340
0
102
{BLKREFS
331
41
102
}
  0
BLOCK_RECORD
  5
52
330
1
100
AcDbSymbolTableRecord
100
AcDbBlockTableRecord
  2
block 4
340
0
102
{BLKREFS
331
53
102
}
  0
BLOCK_RECORD
  5
75
330
1
100
AcDbSymbolTableRecord
100
AcDbBlockTableRecord
  2
block 5
340
0
102
{BLKREFS
331
76
102
}
  0
ENDTAB
  0
ENDSEC
  0
SECTION
  2
BLOCKS
  0
BLOCK
  5
20
330
1F
100
AcDbEntity
  8
0
100
AcDbBlockBegin
  2
*Model_Space
 70
     0
 71
     0
 10
0.0
 20
0.0
 30
0.0
  3
*Model_Space
  1

  0
ENDBLK
  5
21
330
1F
100
AcDbEntity
  8
0
100
AcDbBlockEnd
  0
BLOCK
  5
1C
330
1B
100
AcDbEntity
 67
     1
  8
0
100
AcDbBlockBegin
  2
*Paper_Space
 70
     0
 71
     0
 10
0.0
 20
0.0
 30
0.0
  3
*Paper_Space
  1

  0
ENDBLK
  5
1D
330
1B
100
AcDbEntity
 67
     1
  8
0
100
AcDbBlockEnd
  0
BLOCK
  5
24
330
23
100
AcDbEntity
  8
0
100
AcDbBlockBegin
  2
*Paper_Space0
 70
     0
 71
     0
 10
0.0
 20
0.0
 30
0.0
  3
*Paper_Space0
  1

  0
ENDBLK
  5
25
330
23
100
AcDbEntity
  8
0
100
AcDbBlockEnd
  0
BLOCK
  5
3E
330
3C
100
AcDbEntity
  8
0
100
AcDbBlockBegin
  2
block 2
 70
     0
 71
     0
 10
0.0
 20
0.0
 30
0.0
  3
block 2
  1

  0
INSERT
  5
41
330
3C
100
AcDbEntity
  8
\U+30EC\U+30A4\U+30E4\U+30FC 1
100
AcDbBlockReference
  2
block 3
 10
0.0
 20
0.0
 30
0.0
  0
INSERT
  5
53
330
3C
100
AcDbEntity
  8
\U+30EC\U+30A4\U+30E4\U+30FC 1
100
AcDbBlockReference
  2
block 4
 10
0.0
 20
0.0
 30
0.0
  0
ENDBLK
  5
3F
330
3C
100
AcDbEntity
  8
0
100
AcDbBlockEnd
  0
BLOCK
  5
42
330
40
100
AcDbEntity
  8
0
100
AcDbBlockBegin
  2
block 3
 70
     0
 71
     0
 10
0.0
 20
0.0
 30
0.0
  3
block 3
  1

  0
SPLINE
  5
44
330
40
100
AcDbEntity
  8
\U+30EC\U+30A4\U+30E4\U+30FC 1
 62
   250
420
  2234132
370
    13
100
AcDbSpline
210
0.0
220
0.0
230
1.0
 70
     8
 71
     3
 72
    14
 73
    10
 74
     0
 42
0.0000000001
 43
0.0000000001
 40
0.0
 40
0.0
 40
0.0
 40
0.0
 40
1.0
 40
1.0
 40
1.0
 40
2.0
 40
2.0
 40
2.0
 40
3.0
 40
3.0
 40
3.0
 40
3.0
 10
731.9068845616512
 20
699.1283296886368
 30
0.0
 10
731.9068845616512
 20
699.1283296886368
 30
0.0
 10
747.6688958238775
 20
676.0663285321775
 30
0.0
 10
754.9745701294111
 20
647.9739678844305
 30
0.0
 10
762.2650860048095
 20
619.8857413539931
 30
0.0
 10
772.3227043994029
 20
569.8875543573588
 30
0.0
 10
773.6566462512857
 20
552.7562889912306
 30
0.0
 10
775.9875993943225
 20
522.8914255470123
 30
0.0
 10
776.2921460361264
 20
500.713608730134
 30
0.0
 10
776.2921460361264
 20
487.4077799144465
 30
0.0
  0
SPLINE
  5
45
330
40
100
AcDbEntity
  8
\U+30EC\U+30A4\U+30E4\U+30FC 1
 62
   250
420
  2234132
370
    13
100
AcDbSpline
210
0.0
220
0.0
230
1.0
 70
     8
 71
     3
 72
    14
 73
    10
 74
     0
 42
0.0000000001
 43
0.0000000001
 40
0.0
 40
0.0
 40
0.0
 40
0.0
 40
1.0
 40
1.0
 40
1.0
 40
2.0
 40
2.0
 40
2.0
 40
3.0
 40
3.0
 40
3.0
 40
3.0
 10
731.9068845616512
 20
275.6872301402561
 30
0.0
 10
731.9068845616512
 20
275.6872301402561
 30
0.0
 10
747.6688958238775
 20
298.7533654140249
 30
0.0
 10
754.9745701294111
 20
326.8457260617719
 30
0.0
 10
762.2650860048095
 20
354.9258566124781
 30
0.0
 10
772.3227043994029
 20
404.9199094918029
 30
0.0
 10
773.6566462512857
 20
422.0592708376623
 30
0.0
 10
775.9875993943225
 20
451.9243065367684
 30
0.0
 10
776.2921460361264
 20
474.1019510987589
 30
0.0
 10
776.2921460361264
 20
487.4077799144465
 30
0.0
  0
SPLINE
  5
46
330
40
100
AcDbEntity
  8
\U+30EC\U+30A4\U+30E4\U+30FC 1
 62
   250
420
  2234132
370
    13
100
AcDbSpline
210
0.0
220
0.0
230
1.0
 70
     8
 71
     3
 72
    20
 73
    16
 74
     0
 42
0.0000000001
 43
0.0000000001
 40
0.0
 40
0.0
 40
0.0
 40
0.0
 40
1.0
 40
1.0
 40
1.0
 40
2.0
 40
2.0
 40
2.0
 40
3.0
 40
3.0
 40
3.0
 40
4.0
 40
4.0
 40
4.0
 40
5.0
 40
5.0
 40
5.0
 40
5.0
 10
639.7832479648766
 20
750.8831720320558
 30
0.0
 10
639.7832479648766
 20
750.8831720320558
 30
0.0
 10
662.9914935211614
 20
744.6723497940025
 30
0.0
 10
676.129718330924
 20
739.7882347025401
 30
0.0
 10
689.2679431406867
 20
734.9079092186116
 30
0.0
 10
714.2424903174784
 20
719.8335394688744
 30
0.0
 10
726.062620725045
 20
706.9698889504213
 30
0.0
 10
737.8868852499211
 20
694.1021043146586
 30
0.0
 10
741.8287661045808
 20
672.8169123268681
 30
0.0
 10
744.4559976548024
 20
654.6269684197183
 30
0.0
 10
747.079784107266
 20
636.4409863749901
 30
0.0
 10
751.9105001834799
 20
586.7550974901151
 30
0.0
 10
752.3390703445704
 20
563.701192313387
 30
0.0
 10
752.787622072657
 20
540.626961059887
 30
0.0
 10
752.3390703445704
 20
503.8250487702371
 30
0.0
 10
752.3390703445704
 20
487.4077799144465
 30
0.0
  0
SPLINE
  5
47
330
40
100
AcDbEntity
  8
\U+30EC\U+30A4\U+30E4\U+30FC 1
 62
   250
420
  2234132
370
    13
100
AcDbSpline
210
0.0
220
0.0
230
1.0
 70
     8
 71
     3
 72
    20
 73
    16
 74
     0
 42
0.0000000001
 43
0.0000000001
 40
0.0
 40
0.0
 40
0.0
 40
0.0
 40
1.0
 40
1.0
 40
1.0
 40
2.0
 40
2.0
 40
2.0
 40
3.0
 40
3.0
 40
3.0
 40
4.0
 40
4.0
 40
4.0
 40
5.0
 40
5.0
 40
5.0
 40
5.0
 10
639.7832479648766
 20
223.9406560314563
 30
0.0
 10
639.7832479648766
 20
223.9406560314563
 30
0.0
 10
662.9914935211614
 20
230.1473441522
 30
0.0
 10
676.129718330924
 20
235.0194014015094
 30
0.0
 10
689.2679431406867
 20
239.9157465900125
 30
0.0
 10
714.2424903174784
 20
254.9902885946375
 30
0.0
 10
726.062620725045
 20
267.8539391130907
 30
0.0
 10
737.8868852499211
 20
280.7175896315438
 30
0.0
 10
741.8287661045808
 20
302.006743481756
 30
0.0
 10
744.4559976548024
 20
320.1968596437937
 30
0.0
 10
747.079784107266
 20
338.3787075712123
 30
0.0
 10
751.9105001834799
 20
388.0523663590466
 30
0.0
 10
752.3390703445704
 20
411.1143675155059
 30
0.0
 10
752.787622072657
 20
434.1805027892747
 30
0.0
 10
752.3390703445704
 20
470.998607038387
 30
0.0
 10
752.3390703445704
 20
487.4077799144465
 30
0.0
  0
SPLINE
  5
48
330
40
100
AcDbEntity
  8
\U+30EC\U+30A4\U+30E4\U+30FC 1
 62
   250
420
  2234132
370
    13
100
AcDbSpline
210
0.0
220
0.0
230
1.0
 70
     8
 71
     3
 72
    20
 73
    16
 74
     0
 42
0.0000000001
 43
0.0000000001
 40
0.0
 40
0.0
 40
0.0
 40
0.0
 40
1.0
 40
1.0
 40
1.0
 40
2.0
 40
2.0
 40
2.0
 40
3.0
 40
3.0
 40
3.0
 40
4.0
 40
4.0
 40
4.0
 40
5.0
 40
5.0
 40
5.0
 40
5.0
 10
517.5938987245946
 20
803.4329706831244
 30
0.0
 10
527.0110734459829
 20
801.6642574941868
 30
0.0
 10
549.5661284673581
 20
798.5690094135462
 30
0.0
 10
564.8875117263411
 20
791.6848428186992
 30
0.0
 10
580.2247424350107
 20
784.8048103411618
 30
0.0
 10
620.2881287721231
 20
761.7467710471242
 30
0.0
 10
635.4010836167494
 20
754.4285221347741
 30
0.0
 10
650.510248853842
 20
747.1104454773119
 30
0.0
 10
672.1961057108833
 20
734.2385267242396
 30
0.0
 10
676.129718330924
 20
723.8291638485584
 30
0.0
 10
680.0709101660323
 20
713.4036090134148
 30
0.0
 10
683.1353246217391
 20
693.4327218202866
 30
0.0
 10
684.0203702357595
 20
677.9120396560055
 30
0.0
 10
684.8937025174027
 20
662.3791273946837
 30
0.0
 10
684.8937025174027
 20
631.3417249285432
 30
0.0
 10
685.5465485425365
 20
613.825125378187
 30
0.0
  0
SPLINE
  5
49
330
40
100
AcDbEntity
  8
\U+30EC\U+30A4\U+30E4\U+30FC 1
 62
   250
420
  2234132
370
    13
100
AcDbSpline
210
0.0
220
0.0
230
1.0
 70
     8
 71
     3
 72
    20
 73
    16
 74
     0
 42
0.0000000001
 43
0.0000000001
 40
0.0
 40
0.0
 40
0.0
 40
0.0
 40
1.0
 40
1.0
 40
1.0
 40
2.0
 40
2.0
 40
2.0
 40
3.0
 40
3.0
 40
3.0
 40
4.0
 40
4.0
 40
4.0
 40
5.0
 40
5.0
 40
5.0
 40
5.0
 10
517.5938987245946
 20
172.4860539576437
 30
0.0
 10
527.0110734459829
 20
174.2589012638907
 30
0.0
 10
549.5661284673581
 20
177.3703413039938
 30
0.0
 10
564.8875117263411
 20
184.2341818220688
 30
0.0
 10
580.2247424350107
 20
191.1183484169158
 30
0.0
 10
620.2881287721231
 20
214.1844836906845
 30
0.0
 10
635.4010836167494
 20
221.4985984857251
 30
0.0
 10
650.510248853842
 20
228.8249433778064
 30
0.0
 10
672.1961057108833
 20
241.68445977895
 30
0.0
 10
676.129718330924
 20
252.0977845170529
 30
0.0
 10
680.0709101660323
 20
262.5274734695062
 30
0.0
 10
683.1353246217391
 20
282.490264682903
 30
0.0
 10
684.0203702357595
 20
298.0069849847625
 30
0.0
 10
684.8937025174027
 20
313.5398972460844
 30
0.0
 10
684.8937025174027
 20
344.5893575543778
 30
0.0
 10
685.5465485425365
 20
362.0980333798906
 30
0.0
  0
SPLINE
  5
4A
330
40
100
AcDbEntity
  8
\U+30EC\U+30A4\U+30E4\U+30FC 1
 62
   250
420
  2234132
370
    13
100
AcDbSpline
210
0.0
220
0.0
230
1.0
 70
     8
 71
     3
 72
    32
 73
    28
 74
     0
 42
0.0000000001
 43
0.0000000001
 40
0.0
 40
0.0
 40
0.0
 40
0.0
 40
1.0
 40
1.0
 40
1.0
 40
2.0
 40
2.0
 40
2.0
 40
3.0
 40
3.0
 40
3.0
 40
4.0
 40
4.0
 40
4.0
 40
5.0
 40
5.0
 40
5.0
 40
6.0
 40
6.0
 40
6.0
 40
7.0
 40
7.0
 40
7.0
 40
8.0
 40
8.0
 40
8.0
 40
9.0
 40
9.0
 40
9.0
 40
9.0
 10
691.3146757186918
 20
487.9960303566184
 30
0.0
 10
691.3146757186918
 20
512.2467624944624
 30
0.0
 10
688.9833780658792
 20
545.9534267034716
 30
0.0
 10
687.2329238950588
 20
583.2178433671279
 30
0.0
 10
685.4745459993951
 20
620.4779536585867
 30
0.0
 10
680.8122952035455
 20
673.7012689213368
 30
0.0
 10
672.632944106593
 20
703.2743325854558
 30
0.0
 10
664.4494588923308
 20
732.8472239946868
 30
0.0
 10
655.6971880382291
 20
735.2081494882179
 30
0.0
 10
646.3564944870675
 20
739.3458841504179
 30
0.0
 10
637.0154564261302
 20
743.4837910675056
 30
0.0
 10
609.5614723929335
 20
757.673804222774
 30
0.0
 10
592.6298504418792
 20
764.1888285928553
 30
0.0
 10
575.6944388832911
 20
770.6917951207838
 30
0.0
 10
545.3203899904461
 20
786.6627515620305
 30
0.0
 10
531.8979446156516
 20
795.5306054459119
 30
0.0
 10
518.4551731640851
 20
804.3982870749052
 30
0.0
 10
507.9524481391631
 20
803.801940653002
 30
0.0
 10
495.1108462463609
 20
803.801940653002
 30
0.0
 10
482.2609761189396
 20
803.801940653002
 30
0.0
 10
476.4167122823334
 20
772.4725661518743
 30
0.0
 10
476.4167122823334
 20
752.3475108340773
 30
0.0
 10
476.4167122823334
 20
732.2386474757428
 30
0.0
 10
489.2707165270642
 20
641.1709333417836
 30
0.0
 10
493.3521238409214
 20
612.1904264920341
 30
0.0
 10
493.3521238409214
 20
612.1904264920341
 30
0.0
 10
511.4616247154228
 20
503.9588908181339
 30
0.0
 10
511.4616247154228
 20
487.4077799144465
 30
0.0
  0
SPLINE
  5
4B
330
40
100
AcDbEntity
  8
\U+30EC\U+30A4\U+30E4\U+30FC 1
 62
   250
420
  2234132
370
    13
100
AcDbSpline
210
0.0
220
0.0
230
1.0
 70
     8
 71
     3
 72
    32
 73
    28
 74
     0
 42
0.0000000001
 43
0.0000000001
 40
0.0
 40
0.0
 40
0.0
 40
0.0
 40
1.0
 40
1.0
 40
1.0
 40
2.0
 40
2.0
 40
2.0
 40
3.0
 40
3.0
 40
3.0
 40
4.0
 40
4.0
 40
4.0
 40
5.0
 40
5.0
 40
5.0
 40
6.0
 40
6.0
 40
6.0
 40
7.0
 40
7.0
 40
7.0
 40
8.0
 40
8.0
 40
8.0
 40
9.0
 40
9.0
 40
9.0
 40
9.0
 10
691.3146757186918
 20
486.8114334925432
 30
0.0
 10
691.3146757186918
 20
462.5608736095872
 30
0.0
 10
688.9833780658792
 20
428.8581712629996
 30
0.0
 10
687.2329238950588
 20
391.6059846963841
 30
0.0
 10
685.4745459993951
 20
354.3415680327278
 30
0.0
 10
680.8122952035455
 20
301.1184250248656
 30
0.0
 10
672.632944106593
 20
271.5333035185938
 30
0.0
 10
664.4494588923308
 20
241.9766040688252
 30
0.0
 10
655.6971880382291
 20
239.5993143609437
 30
0.0
 10
646.3564944870675
 20
235.4738097957846
 30
0.0
 10
637.0154564261302
 20
231.3278068989656
 30
0.0
 10
609.5614723929335
 20
217.1376214888093
 30
0.0
 10
592.6298504418792
 20
210.6348272157687
 30
0.0
 10
575.6944388832911
 20
204.1239369629969
 30
0.0
 10
545.3203899904461
 20
188.1488464044407
 30
0.0
 10
531.8979446156516
 20
179.2770306581377
 30
0.0
 10
518.4551731640851
 20
170.4131386366781
 30
0.0
 10
507.8563299117159
 20
170.5754027410781
 30
0.0
 10
495.0305754686004
 20
171.3746654209252
 30
0.0
 10
478.5399260305651
 20
172.400960043022
 30
0.0
 10
476.4167122823334
 20
202.3512619116377
 30
0.0
 10
476.4167122823334
 20
222.4599530150843
 30
0.0
 10
476.4167122823334
 20
242.5727782358404
 30
0.0
 10
489.2707165270642
 20
333.636530507378
 30
0.0
 10
493.3521238409214
 20
362.6172096120155
 30
0.0
 10
493.3521238409214
 20
362.6172096120155
 30
0.0
 10
511.4616247154228
 20
470.8485730310278
 30
0.0
 10
511.4616247154228
 20
487.4077799144465
 30
0.0
  0
SPLINE
  5
4C
330
40
100
AcDbEntity
  8
\U+30EC\U+30A4\U+30E4\U+30FC 1
 62
   250
420
  2234132
370
    13
100
AcDbSpline
210
0.0
220
0.0
230
1.0
 70
     8
 71
     3
 72
    29
 73
    25
 74
     0
 42
0.0000000001
 43
0.0000000001
 40
0.0
 40
0.0
 40
0.0
 40
0.0
 40
1.0
 40
1.0
 40
1.0
 40
2.0
 40
2.0
 40
2.0
 40
3.0
 40
3.0
 40
3.0
 40
4.0
 40
4.0
 40
4.0
 40
5.0
 40
5.0
 40
5.0
 40
6.0
 40
6.0
 40
6.0
 40
7.0
 40
7.0
 40
7.0
 40
8.0
 40
8.0
 40
8.0
 40
8.0
 10
481.303583452002
 20
788.1312244813618
 30
0.0
 10
481.303583452002
 20
788.1312244813618
 30
0.0
 10
385.9074484949397
 20
803.801940653002
 30
0.0
 10
358.4613881865863
 20
806.7633466857459
 30
0.0
 10
331.0194619955425
 20
809.7206186011803
 30
0.0
 10
243.421994833178
 20
817.408009738296
 30
0.0
 10
211.8862589763483
 20
817.408009738296
 30
0.0
 10
197.2900687954162
 20
817.408009738296
 30
0.0
 10
109.1077962886378
 20
807.359693107649
 30
0.0
 10
66.4805682000504
 20
793.1655458350712
 30
0.0
 10
23.85334011146304
 20
778.9631303278741
 30
0.0
 10
-59.84255384000981
 20
755.9133592684556
 30
0.0
 10
-124.4801669944386
 20
745.8447165610368
 30
0.0
 10
-170.0271154328985
 20
738.7536718458242
 30
0.0
 10
-213.2269187688591
 20
733.4272062022396
 30
0.0
 10
-265.2031086432271
 20
728.6972592354462
 30
0.0
 10
-317.1830881251288
 20
723.9673122686527
 30
0.0
 10
-356.8861172367583
 20
721.0059062359088
 30
0.0
 10
-365.650273678125
 20
721.0059062359088
 30
0.0
 10
-374.4104682570699
 20
721.0059062359088
 30
0.0
 10
-389.006658438002
 20
710.36933916309
 30
0.0
 10
-389.006658438002
 20
696.7593082153744
 30
0.0
 10
-389.006658438002
 20
696.7593082153744
 30
0.0
 10
-389.006658438002
 20
487.4077799144465
 30
0.0
 10
-389.006658438002
 20
487.4077799144465
 30
0.0
  0
SPLINE
  5
4D
330
40
100
AcDbEntity
  8
\U+30EC\U+30A4\U+30E4\U+30FC 1
 62
   250
420
  2234132
370
    13
100
AcDbSpline
210
0.0
220
0.0
230
1.0
 70
     8
 71
     3
 72
    29
 73
    25
 74
     0
 42
0.0000000001
 43
0.0000000001
 40
0.0
 40
0.0
 40
0.0
 40
0.0
 40
1.0
 40
1.0
 40
1.0
 40
2.0
 40
2.0
 40
2.0
 40
3.0
 40
3.0
 40
3.0
 40
4.0
 40
4.0
 40
4.0
 40
5.0
 40
5.0
 40
5.0
 40
6.0
 40
6.0
 40
6.0
 40
7.0
 40
7.0
 40
7.0
 40
8.0
 40
8.0
 40
8.0
 40
8.0
 10
481.6759985196377
 20
185.1996704687376
 30
0.0
 10
481.6759985196377
 20
185.1996704687376
 30
0.0
 10
385.9074484949397
 20
171.0094850585813
 30
0.0
 10
358.4613881865863
 20
168.0441171634158
 30
0.0
 10
331.0194619955425
 20
165.0868452479814
 30
0.0
 10
243.421994833178
 20
157.4075500905969
 30
0.0
 10
211.8862589763483
 20
157.4075500905969
 30
0.0
 10
197.2900687954162
 20
157.4075500905969
 30
0.0
 10
109.1077962886378
 20
167.4558667212438
 30
0.0
 10
66.4805682000504
 20
181.6460521314001
 30
0.0
 10
23.85334011146304
 20
195.8482953837093
 30
0.0
 10
-59.84255384000981
 20
218.894276835594
 30
0.0
 10
-124.4801669944386
 20
228.9708432678561
 30
0.0
 10
-170.0271154328985
 20
236.0699839627999
 30
0.0
 10
-213.2269187688591
 20
241.380257646922
 30
0.0
 10
-265.2031086432271
 20
246.1224347107563
 30
0.0
 10
-317.1830881251288
 20
250.8403238353969
 30
0.0
 10
-356.8861172367583
 20
253.8137877102936
 30
0.0
 10
-365.650273678125
 20
253.8137877102936
 30
0.0
 10
-374.4104682570699
 20
253.8137877102936
 30
0.0
 10
-389.006658438002
 20
264.4422588033813
 30
0.0
 10
-389.006658438002
 20
278.0483278886751
 30
0.0
 10
-389.006658438002
 20
278.0483278886751
 30
0.0
 10
-389.006658438002
 20
487.4077799144465
 30
0.0
 10
-389.006658438002
 20
487.4077799144465
 30
0.0
  0
SPLINE
  5
4E
330
40
100
AcDbEntity
  8
\U+30EC\U+30A4\U+30E4\U+30FC 1
  6
AI-Linetype-1
 62
   250
420
  2234132
370
    13
100
AcDbSpline
210
0.0
220
0.0
230
1.0
 70
     8
 71
     3
 72
    38
 73
    34
 74
     0
 42
0.0000000001
 43
0.0000000001
 40
0.0
 40
0.0
 40
0.0
 40
0.0
 40
1.0
 40
1.0
 40
1.0
 40
2.0
 40
2.0
 40
2.0
 40
3.0
 40
3.0
 40
3.0
 40
4.0
 40
4.0
 40
4.0
 40
5.0
 40
5.0
 40
5.0
 40
6.0
 40
6.0
 40
6.0
 40
7.0
 40
7.0
 40
7.0
 40
8.0
 40
8.0
 40
8.0
 40
9.0
 40
9.0
 40
9.0
 40
10.0
 40
10.0
 40
10.0
 40
11.0
 40
11.0
 40
11.0
 40
11.0
 10
741.8287661045808
 20
673.7012689213368
 30
0.0
 10
741.8287661045808
 20
673.7012689213368
 30
0.0
 10
716.8621426526324
 20
698.9863916610087
 30
0.0
 10
706.7959115136442
 20
705.1930797817525
 30
0.0
 10
696.7221011595884
 20
711.403729764918
 30
0.0
 10
652.9173386573298
 20
718.5028704598617
 30
0.0
 10
620.0759107502325
 20
722.0525269347776
 30
0.0
 10
587.2262146085163
 20
725.5939151750742
 30
0.0
 10
461.0998076504357
 20
736.6766224075491
 30
0.0
 10
405.4745702308347
 20
739.3458841504179
 30
0.0
 10
349.8455432036999
 20
742.0030880511337
 30
0.0
 10
264.0105880543086
 20
744.6723497940025
 30
0.0
 10
229.843142020172
 20
744.6723497940025
 30
0.0
 10
195.6839642206545
 20
744.6723497940025
 30
0.0
 10
164.5888563670681
 20
736.6766224075491
 30
0.0
 10
123.4194213947622
 20
735.3623176128867
 30
0.0
 10
82.24636906981047
 20
734.0235526241428
 30
0.0
 10
21.37424776483381
 20
730.920208563771
 30
0.0
 10
-4.025079965514538
 20
730.0358519693021
 30
0.0
 10
-29.43233142070619
 20
729.1514953748334
 30
0.0
 10
-54.39482075534499
 20
728.6972592354462
 30
0.0
 10
-69.72033813163758
 20
727.8089407785558
 30
0.0
 10
-85.05343472299765
 20
726.9245841840869
 30
0.0
 10
-94.698674915963
 20
722.0525269347776
 30
0.0
 10
-109.1388021684594
 20
708.7344680220492
 30
0.0
 10
-123.598910987952
 20
695.4286392063617
 30
0.0
 10
-147.2515741550138
 20
664.3912367402212
 30
0.0
 10
-164.3234115848171
 20
632.4532857201494
 30
0.0
 10
-181.4110964643071
 20
600.5153347000777
 30
0.0
 10
-190.5998612043425
 20
585.4285625984119
 30
0.0
 10
-196.2956413275806
 20
567.2386186912621
 30
0.0
 10
-201.9876318432849
 20
549.0648667435747
 30
0.0
 10
-206.3735857989459
 20
510.0317368909808
 30
0.0
 10
-206.3735857989459
 20
487.4077799144465
 30
0.0
  0
SPLINE
  5
50
330
40
100
AcDbEntity
  8
\U+30EC\U+30A4\U+30E4\U+30FC 1
  6
AI-Linetype-2
 62
   250
420
  2234132
370
    13
100
AcDbSpline
210
0.0
220
0.0
230
1.0
 70
     8
 71
     3
 72
    38
 73
    34
 74
     0
 42
0.0000000001
 43
0.0000000001
 40
0.0
 40
0.0
 40
0.0
 40
0.0
 40
1.0
 40
1.0
 40
1.0
 40
2.0
 40
2.0
 40
2.0
 40
3.0
 40
3.0
 40
3.0
 40
4.0
 40
4.0
 40
4.0
 40
5.0
 40
5.0
 40
5.0
 40
6.0
 40
6.0
 40
6.0
 40
7.0
 40
7.0
 40
7.0
 40
8.0
 40
8.0
 40
8.0
 40
9.0
 40
9.0
 40
9.0
 40
10.0
 40
10.0
 40
10.0
 40
11.0
 40
11.0
 40
11.0
 40
11.0
 10
741.8287661045808
 20
301.1184250248656
 30
0.0
 10
741.8287661045808
 20
301.1184250248656
 30
0.0
 10
716.8621426526324
 20
275.8333022851937
 30
0.0
 10
706.7959115136442
 20
269.6266141644499
 30
0.0
 10
696.7221011595884
 20
263.4118300639749
 30
0.0
 10
652.9173386573298
 20
256.3207853487623
 30
0.0
 10
620.0759107502325
 20
252.7671670114249
 30
0.0
 10
587.2262146085163
 20
249.2216446538186
 30
0.0
 10
461.0998076504357
 20
238.1308414416125
 30
0.0
 10
405.4745702308347
 20
235.4738097957846
 30
0.0
 10
349.8455432036999
 20
232.804375798028
 30
0.0
 10
264.0105880543086
 20
230.1473441522
 30
0.0
 10
229.843142020172
 20
230.1473441522
 30
0.0
 10
195.6839642206545
 20
230.1473441522
 30
0.0
 10
164.5888563670681
 20
238.1308414416125
 30
0.0
 10
123.4194213947622
 20
239.4613381957373
 30
0.0
 10
82.24636906981047
 20
240.8001031844813
 30
0.0
 10
21.37424776483381
 20
243.8953512651219
 30
0.0
 10
-4.025079965514538
 20
244.7836697220123
 30
0.0
 10
-29.43233142070619
 20
245.6680263164811
 30
0.0
 10
-54.39482075534499
 20
246.1224347107563
 30
0.0
 10
-69.72033813163758
 20
247.0067913052251
 30
0.0
 10
-85.05343472299765
 20
247.8951097621155
 30
0.0
 10
-94.698674915963
 20
252.7671670114249
 30
0.0
 10
-109.1388021684594
 20
266.0729958271124
 30
0.0
 10
-123.598910987952
 20
279.3788246427999
 30
0.0
 10
-147.2515741550138
 20
310.4284572059813
 30
0.0
 10
-164.3234115848171
 20
342.366408226053
 30
0.0
 10
-181.4110964643071
 20
374.3043592461247
 30
0.0
 10
-190.5998612043425
 20
389.3789012507498
 30
0.0
 10
-196.2956413275806
 20
407.5688451578996
 30
0.0
 10
-201.9876318432849
 20
425.7589613199373
 30
0.0
 10
-206.3735857989459
 20
464.7879570552216
 30
0.0
 10
-206.3735857989459
 20
487.4077799144465
 30
0.0
  0
ENDBLK
  5
43
330
40
100
AcDbEntity
  8
0
100
AcDbBlockEnd
  0
BLOCK
  5
54
330
52
100
AcDbEntity
  8
0
100
AcDbBlockBegin
  2
block 4
 70
     0
 71
     0
 10
0.0
 20
0.0
 30
0.0
  3
block 4
  1

  0
SPLINE
  5
56
330
52
100
AcDbEntity
  8
\U+30EC\U+30A4\U+30E4\U+30FC 1
 62
   250
420
  2234132
370
     5
100
AcDbSpline
210
0.0
220
0.0
230
1.0
 70
     8
 71
     3
 72
     8
 73
     4
 74
     0
 42
0.0000000001
 43
0.0000000001
 40
0.0
 40
0.0
 40
0.0
 40
0.0
 40
1.0
 40
1.0
 40
1.0
 40
1.0
 10
1016.965986387778
 20
451.9796003557837
 30
0.0
 10
1026.583321288904
 20
458.131339167288
 30
0.0
 10
1092.021575162283
 20
454.8204279669989
 30
0.0
 10
1089.662372217631
 20
455.4698288943747
 30
0.0
  0
SPLINE
  5
57
330
52
100
AcDbEntity
  8
\U+30EC\U+30A4\U+30E4\U+30FC 1
 62
   250
420
  2234132
370
     5
100
AcDbSpline
210
0.0
220
0.0
230
1.0
 70
     8
 71
     3
 72
     8
 73
     4
 74
     0
 42
0.0000000001
 43
0.0000000001
 40
0.0
 40
0.0
 40
0.0
 40
0.0
 40
1.0
 40
1.0
 40
1.0
 40
1.0
 10
1016.965986387778
 20
507.0417365468459
 30
0.0
 10
1026.583321288904
 20
500.8862081278078
 30
0.0
 10
1092.021575162283
 20
504.1890233483657
 30
0.0
 10
1089.662372217631
 20
503.5516802631428
 30
0.0
  0
SPLINE
  5
58
330
52
100
AcDbEntity
  8
\U+30EC\U+30A4\U+30E4\U+30FC 1
 62
   250
420
  2234132
370
     5
100
AcDbSpline
210
0.0
220
0.0
230
1.0
 70
     8
 71
     3
 72
    20
 73
    16
 74
     0
 42
0.0000000001
 43
0.0000000001
 40
0.0
 40
0.0
 40
0.0
 40
0.0
 40
1.0
 40
1.0
 40
1.0
 40
2.0
 40
2.0
 40
2.0
 40
3.0
 40
3.0
 40
3.0
 40
4.0
 40
4.0
 40
4.0
 40
5.0
 40
5.0
 40
5.0
 40
5.0
 10
1034.445723392124
 20
657.8011092390162
 30
0.0
 10
1038.247044258259
 20
664.4827040856951
 30
0.0
 10
1049.198321011268
 20
672.9054513392477
 30
0.0
 10
1053.419943803874
 20
674.9413318593151
 30
0.0
 10
1058.987910800292
 20
677.6068039946501
 30
0.0
 10
1068.989718611206
 20
682.5272648674589
 30
0.0
 10
1077.069161873178
 20
676.8299344502298
 30
0.0
 10
1085.597156863236
 20
670.8256458227662
 30
0.0
 10
1082.76873160395
 20
651.6893335615043
 30
0.0
 10
1085.260226302508
 20
632.8320742186373
 30
0.0
 10
1087.735873551379
 20
613.946737329043
 30
0.0
 10
1091.508944615899
 20
591.878130111092
 30
0.0
 10
1095.318533716653
 20
579.1045688990096
 30
0.0
 10
1107.883494259491
 20
536.9872152786005
 30
0.0
 10
1114.845347808779
 20
505.7310491048294
 30
0.0
 10
1114.556648616662
 20
479.0206894226887
 30
0.0
  0
SPLINE
  5
59
330
52
100
AcDbEntity
  8
\U+30EC\U+30A4\U+30E4\U+30FC 1
 62
   250
420
  2234132
370
     5
100
AcDbSpline
210
0.0
220
0.0
230
1.0
 70
     8
 71
     3
 72
    20
 73
    16
 74
     0
 42
0.0000000001
 43
0.0000000001
 40
0.0
 40
0.0
 40
0.0
 40
0.0
 40
1.0
 40
1.0
 40
1.0
 40
2.0
 40
2.0
 40
2.0
 40
3.0
 40
3.0
 40
3.0
 40
4.0
 40
4.0
 40
4.0
 40
5.0
 40
5.0
 40
5.0
 40
5.0
 10
1231.399206136588
 20
248.77981086636
 30
0.0
 10
1231.399206136588
 20
248.77981086636
 30
0.0
 10
1225.93941520977
 20
265.350214317492
 30
0.0
 10
1225.93941520977
 20
265.350214317492
 30
0.0
 10
1225.522558381057
 20
266.3024393377926
 30
0.0
 10
1224.585491790891
 20
266.9718218321646
 30
0.0
 10
1223.467902078208
 20
266.9718218321646
 30
0.0
 10
1221.994089257352
 20
266.9718218321646
 30
0.0
 10
1220.788305042066
 20
265.7765451650398
 30
0.0
 10
1220.788305042066
 20
264.2982537170984
 30
0.0
 10
1220.788305042066
 20
263.923771590808
 30
0.0
 10
1220.864097192741
 20
263.5771947563571
 30
0.0
 10
1221.004657181266
 20
263.2664469385889
 30
0.0
 10
1221.004657181266
 20
263.2664469385889
 30
0.0
 10
1226.472027323151
 20
247.4768748942989
 30
0.0
 10
1226.472027323151
 20
247.4768748942989
 30
0.0
  0
SPLINE
  5
5A
330
52
100
AcDbEntity
  8
\U+30EC\U+30A4\U+30E4\U+30FC 1
 62
   250
420
  2234132
370
     5
100
AcDbSpline
210
0.0
220
0.0
230
1.0
 70
    11
 71
     3
 72
    17
 73
    13
 74
     0
 42
0.0000000001
 43
0.0000000001
 40
0.0
 40
0.0
 40
0.0
 40
0.0
 40
1.0
 40
1.0
 40
1.0
 40
2.0
 40
2.0
 40
2.0
 40
3.0
 40
3.0
 40
3.0
 40
4.0
 40
4.0
 40
4.0
 40
4.0
 10
1233.041139728032
 20
219.407940911306
 30
0.0
 10
1225.674831701959
 20
219.407940911306
 30
0.0
 10
1219.68242866176
 20
225.3484952302473
 30
0.0
 10
1219.68242866176
 20
232.6874147291452
 30
0.0
 10
1219.68242866176
 20
240.0263342280431
 30
0.0
 10
1225.674831701959
 20
245.9787741342493
 30
0.0
 10
1233.041139728032
 20
245.9787741342493
 30
0.0
 10
1240.419161086483
 20
245.9787741342493
 30
0.0
 10
1246.403984911614
 20
240.0263342280431
 30
0.0
 10
1246.403984911614
 20
232.6874147291452
 30
0.0
 10
1246.403984911614
 20
225.3484952302473
 30
0.0
 10
1240.419161086483
 20
219.407940911306
 30
0.0
 10
1233.041139728032
 20
219.407940911306
 30
0.0
  0
SPLINE
  5
5B
330
52
100
AcDbEntity
  8
\U+30EC\U+30A4\U+30E4\U+30FC 1
 62
   250
420
  2234132
370
     5
100
AcDbSpline
210
0.0
220
0.0
230
1.0
 70
    11
 71
     3
 72
    17
 73
    13
 74
     0
 42
0.0000000001
 43
0.0000000001
 40
0.0
 40
0.0
 40
0.0
 40
0.0
 40
1.0
 40
1.0
 40
1.0
 40
2.0
 40
2.0
 40
2.0
 40
3.0
 40
3.0
 40
3.0
 40
4.0
 40
4.0
 40
4.0
 40
4.0
 10
1233.041139728032
 20
216.8899189600119
 30
0.0
 10
1224.285079266397
 20
216.8899189600119
 30
0.0
 10
1217.170952396206
 20
223.9539196578244
 30
0.0
 10
1217.170952396206
 20
232.6874147291452
 30
0.0
 10
1217.170952396206
 20
241.4169479380443
 30
0.0
 10
1224.285079266397
 20
248.4888723607002
 30
0.0
 10
1233.041139728032
 20
248.4888723607002
 30
0.0
 10
1241.817181756664
 20
248.4888723607002
 30
0.0
 10
1248.918906274926
 20
241.4169479380443
 30
0.0
 10
1248.918906274926
 20
232.6874147291452
 30
0.0
 10
1248.918906274926
 20
223.9539196578244
 30
0.0
 10
1241.817181756664
 20
216.8899189600119
 30
0.0
 10
1233.041139728032
 20
216.8899189600119
 30
0.0
  0
SPLINE
  5
5C
330
52
100
AcDbEntity
  8
\U+30EC\U+30A4\U+30E4\U+30FC 1
 62
   250
420
  2234132
370
     5
100
AcDbSpline
210
0.0
220
0.0
230
1.0
 70
     8
 71
     3
 72
    20
 73
    16
 74
     0
 42
0.0000000001
 43
0.0000000001
 40
0.0
 40
0.0
 40
0.0
 40
0.0
 40
1.0
 40
1.0
 40
1.0
 40
2.0
 40
2.0
 40
2.0
 40
3.0
 40
3.0
 40
3.0
 40
4.0
 40
4.0
 40
4.0
 40
5.0
 40
5.0
 40
5.0
 40
5.0
 10
1229.756583525592
 20
254.5608571591076
 30
0.0
 10
1230.825941869663
 20
254.7201929304134
 30
0.0
 10
1231.92355001535
 20
254.7959850810885
 30
0.0
 10
1233.041139728032
 20
254.7959850810885
 30
0.0
 10
1245.326358332924
 20
254.7959850810885
 30
0.0
 10
1255.275800657917
 20
244.9070042217474
 30
0.0
 10
1255.275800657917
 20
232.6874147291452
 30
0.0
 10
1255.275800657917
 20
220.4797108238079
 30
0.0
 10
1245.326358332924
 20
210.5829784945114
 30
0.0
 10
1233.041139728032
 20
210.5829784945114
 30
0.0
 10
1220.780036807447
 20
210.5829784945114
 30
0.0
 10
1210.818192130524
 20
220.4797108238079
 30
0.0
 10
1210.818192130524
 20
232.6874147291452
 30
0.0
 10
1210.818192130524
 20
241.8512025104354
 30
0.0
 10
1216.414408928558
 20
249.7041305948212
 30
0.0
 10
1224.393255335997
 20
253.062756399058
 30
0.0
  0
SPLINE
  5
5D
330
52
100
AcDbEntity
  8
\U+30EC\U+30A4\U+30E4\U+30FC 1
 62
   250
420
  2234132
370
     5
100
AcDbSpline
210
0.0
220
0.0
230
1.0
 70
     8
 71
     3
 72
    20
 73
    16
 74
     0
 42
0.0000000001
 43
0.0000000001
 40
0.0
 40
0.0
 40
0.0
 40
0.0
 40
1.0
 40
1.0
 40
1.0
 40
2.0
 40
2.0
 40
2.0
 40
3.0
 40
3.0
 40
3.0
 40
4.0
 40
4.0
 40
4.0
 40
5.0
 40
5.0
 40
5.0
 40
5.0
 10
1228.126363266524
 20
258.146687160482
 30
0.0
 10
1229.716620391599
 20
258.4495112534069
 30
0.0
 10
1231.355108885286
 20
258.6128088871343
 30
0.0
 10
1233.041139728032
 20
258.6128088871343
 30
0.0
 10
1247.44095933676
 20
258.6128088871343
 30
0.0
 10
1259.105371325667
 20
247.0107531676467
 30
0.0
 10
1259.105371325667
 20
232.6874147291452
 30
0.0
 10
1259.105371325667
 20
218.3680381530653
 30
0.0
 10
1247.44095933676
 20
206.7580587087344
 30
0.0
 10
1233.041139728032
 20
206.7580587087344
 30
0.0
 10
1218.653033451681
 20
206.7580587087344
 30
0.0
 10
1206.989310482326
 20
218.3680381530653
 30
0.0
 10
1206.989310482326
 20
232.6874147291452
 30
0.0
 10
1206.989310482326
 20
243.6519551085219
 30
0.0
 10
1213.822317375467
 20
253.0348511072185
 30
0.0
 10
1223.487883645204
 20
256.819980013891
 30
0.0
  0
SPLINE
  5
5E
330
52
100
AcDbEntity
  8
\U+30EC\U+30A4\U+30E4\U+30FC 1
 62
   250
420
  2234132
370
     5
100
AcDbSpline
210
0.0
220
0.0
230
1.0
 70
    11
 71
     3
 72
    17
 73
    13
 74
     0
 42
0.0000000001
 43
0.0000000001
 40
0.0
 40
0.0
 40
0.0
 40
0.0
 40
1.0
 40
1.0
 40
1.0
 40
2.0
 40
2.0
 40
2.0
 40
3.0
 40
3.0
 40
3.0
 40
4.0
 40
4.0
 40
4.0
 40
4.0
 10
1273.405283099415
 20
467.2313926400559
 30
0.0
 10
1265.922530769122
 20
467.2313926400559
 30
0.0
 10
1259.838488128561
 20
473.2913195963105
 30
0.0
 10
1259.838488128561
 20
480.745822124988
 30
0.0
 10
1259.838488128561
 20
488.2042865160872
 30
0.0
 10
1265.922530769122
 20
494.2483660226551
 30
0.0
 10
1273.405283099415
 20
494.2483660226551
 30
0.0
 10
1280.903193859842
 20
494.2483660226551
 30
0.0
 10
1286.996193754573
 20
488.2042865160872
 30
0.0
 10
1286.996193754573
 20
480.745822124988
 30
0.0
 10
1286.996193754573
 20
473.2913195963105
 30
0.0
 10
1280.903193859842
 20
467.2313926400559
 30
0.0
 10
1273.405283099415
 20
467.2313926400559
 30
0.0
  0
SPLINE
  5
5F
330
52
100
AcDbEntity
  8
\U+30EC\U+30A4\U+30E4\U+30FC 1
 62
   250
420
  2234132
370
     5
100
AcDbSpline
210
0.0
220
0.0
230
1.0
 70
    11
 71
     3
 72
    17
 73
    13
 74
     0
 42
0.0000000001
 43
0.0000000001
 40
0.0
 40
0.0
 40
0.0
 40
0.0
 40
1.0
 40
1.0
 40
1.0
 40
2.0
 40
2.0
 40
2.0
 40
3.0
 40
3.0
 40
3.0
 40
4.0
 40
4.0
 40
4.0
 40
4.0
 10
1273.405283099415
 20
447.7962181482908
 30
0.0
 10
1255.115948121948
 20
447.7962181482908
 30
0.0
 10
1240.291003449887
 20
462.5538111591835
 30
0.0
 10
1240.291003449887
 20
480.745822124988
 30
0.0
 10
1240.291003449887
 20
498.9417949532143
 30
0.0
 10
1255.115948121948
 20
513.6795786519986
 30
0.0
 10
1273.405283099415
 20
513.6795786519986
 30
0.0
 10
1291.706331409259
 20
513.6795786519986
 30
0.0
 10
1306.531276081319
 20
498.9417949532143
 30
0.0
 10
1306.531276081319
 20
480.745822124988
 30
0.0
 10
1306.531276081319
 20
462.5538111591835
 30
0.0
 10
1291.706331409259
 20
447.7962181482908
 30
0.0
 10
1273.405283099415
 20
447.7962181482908
 30
0.0
  0
SPLINE
  5
60
330
52
100
AcDbEntity
  8
\U+30EC\U+30A4\U+30E4\U+30FC 1
 62
   250
420
  2234132
370
     5
100
AcDbSpline
210
0.0
220
0.0
230
1.0
 70
    11
 71
     3
 72
    17
 73
    13
 74
     0
 42
0.0000000001
 43
0.0000000001
 40
0.0
 40
0.0
 40
0.0
 40
0.0
 40
1.0
 40
1.0
 40
1.0
 40
2.0
 40
2.0
 40
2.0
 40
3.0
 40
3.0
 40
3.0
 40
4.0
 40
4.0
 40
4.0
 40
4.0
 10
1273.405283099415
 20
441.2341681938133
 30
0.0
 10
1251.471034694024
 20
441.2341681938133
 30
0.0
 10
1233.681927911013
 20
458.9200942989733
 30
0.0
 10
1233.681927911013
 20
480.745822124988
 30
0.0
 10
1233.681927911013
 20
502.5674158336931
 30
0.0
 10
1251.471034694024
 20
520.2574760561628
 30
0.0
 10
1273.405283099415
 20
520.2574760561628
 30
0.0
 10
1295.351244837182
 20
520.2574760561628
 30
0.0
 10
1313.127949268265
 20
502.5674158336931
 30
0.0
 10
1313.127949268265
 20
480.745822124988
 30
0.0
 10
1313.127949268265
 20
458.9200942989733
 30
0.0
 10
1295.351244837182
 20
441.2341681938133
 30
0.0
 10
1273.405283099415
 20
441.2341681938133
 30
0.0
  0
SPLINE
  5
61
330
52
100
AcDbEntity
  8
\U+30EC\U+30A4\U+30E4\U+30FC 1
 62
   250
420
  2234132
370
     5
100
AcDbSpline
210
0.0
220
0.0
230
1.0
 70
     8
 71
     3
 72
    32
 73
    28
 74
     0
 42
0.0000000001
 43
0.0000000001
 40
0.0
 40
0.0
 40
0.0
 40
0.0
 40
1.0
 40
1.0
 40
1.0
 40
2.0
 40
2.0
 40
2.0
 40
3.0
 40
3.0
 40
3.0
 40
4.0
 40
4.0
 40
4.0
 40
5.0
 40
5.0
 40
5.0
 40
6.0
 40
6.0
 40
6.0
 40
7.0
 40
7.0
 40
7.0
 40
8.0
 40
8.0
 40
8.0
 40
9.0
 40
9.0
 40
9.0
 40
9.0
 10
1094.040402448449
 20
281.38662761614
 30
0.0
 10
1104.991679201457
 20
278.330825904828
 30
0.0
 10
1145.724448032942
 20
270.9279998425199
 30
0.0
 10
1159.747373946949
 20
270.4937452701288
 30
0.0
 10
1173.759275548131
 20
270.0594906977378
 30
0.0
 10
1186.897500357893
 20
270.9279998425199
 30
0.0
 10
1193.906896256242
 20
275.7251262155937
 30
0.0
 10
1200.908712939524
 20
280.5062328840929
 30
0.0
 10
1212.7329774644
 20
290.096179258043
 30
0.0
 10
1227.185162559049
 20
290.9688225201347
 30
0.0
 10
1241.640792751456
 20
291.8333698024952
 30
0.0
 10
1253.465746295884
 20
285.3111107271221
 30
0.0
 10
1260.466873959614
 20
280.5062328840929
 30
0.0
 10
1267.476958877514
 20
275.7251262155937
 30
0.0
 10
1284.123671243985
 20
271.3624266697989
 30
0.0
 10
1297.261896053748
 20
274.8526552083899
 30
0.0
 10
1310.40012086351
 20
278.330825904828
 30
0.0
 10
1346.322155185777
 20
287.9209445336659
 30
0.0
 10
1367.335184450689
 20
305.7701682725533
 30
0.0
 10
1388.356481950219
 20
323.6355839709032
 30
0.0
 10
1404.558776705913
 20
348.9155390639381
 30
0.0
 10
1404.558776705913
 20
348.9155390639381
 30
0.0
 10
1384.411155997801
 20
280.5062328840929
 30
0.0
 10
1330.111592195464
 20
188.5898189174598
 30
0.0
 10
1239.453844694702
 20
195.5623522697984
 30
0.0
 10
1141.061852727316
 20
203.1243418485243
 30
0.0
 10
1105.864666973325
 20
249.5845857026199
 30
0.0
 10
1083.537677423527
 20
270.9279998425199
 30
0.0
  0
SPLINE
  5
62
330
52
100
AcDbEntity
  8
\U+30EC\U+30A4\U+30E4\U+30FC 1
 62
   250
420
  2234132
370
     5
100
AcDbSpline
210
0.0
220
0.0
230
1.0
 70
    11
 71
     3
 72
    62
 73
    58
 74
     0
 42
0.0000000001
 43
0.0000000001
 40
0.0
 40
0.0
 40
0.0
 40
0.0
 40
1.0
 40
1.0
 40
1.0
 40
2.0
 40
2.0
 40
2.0
 40
3.0
 40
3.0
 40
3.0
 40
4.0
 40
4.0
 40
4.0
 40
5.0
 40
5.0
 40
5.0
 40
6.0
 40
6.0
 40
6.0
 40
7.0
 40
7.0
 40
7.0
 40
8.0
 40
8.0
 40
8.0
 40
9.0
 40
9.0
 40
9.0
 40
10.0
 40
10.0
 40
10.0
 40
11.0
 40
11.0
 40
11.0
 40
12.0
 40
12.0
 40
12.0
 40
13.0
 40
13.0
 40
13.0
 40
14.0
 40
14.0
 40
14.0
 40
15.0
 40
15.0
 40
15.0
 40
16.0
 40
16.0
 40
16.0
 40
17.0
 40
17.0
 40
17.0
 40
18.0
 40
18.0
 40
18.0
 40
19.0
 40
19.0
 40
19.0
 40
19.0
 10
1003.490831017287
 20
561.7772774704533
 30
0.0
 10
1003.819493343397
 20
566.1279191740953
 30
0.0
 10
1005.834186512252
 20
587.6308413401889
 30
0.0
 10
1006.127019821679
 20
594.5952787127964
 30
0.0
 10
1006.395048427249
 20
601.0817087714867
 30
0.0
 10
1004.6649203332
 20
607.0818632816406
 30
0.0
 10
1009.62379404601
 20
625.3734375726502
 30
0.0
 10
1013.080605136349
 20
638.0553591843709
 30
0.0
 10
1017.730798090046
 20
661.3950352201219
 30
0.0
 10
1029.779682988741
 20
676.2124006771152
 30
0.0
 10
1049.655140973974
 20
700.6515796623196
 30
0.0
 10
1070.239600077795
 20
708.428887850918
 30
0.0
 10
1082.472453196765
 20
712.4410486998403
 30
0.0
 10
1099.119854582788
 20
717.8794800205585
 30
0.0
 10
1154.528050843637
 20
726.5890316624615
 30
0.0
 10
1191.748198001103
 20
727.6845727494933
 30
0.0
 10
1229.403805515176
 20
728.7842479538347
 30
0.0
 10
1296.865709811582
 20
723.3337587909635
 30
0.0
 10
1325.765945883571
 20
716.7837666786388
 30
0.0
 10
1371.977798189318
 20
706.3371967471716
 30
0.0
 10
1402.411791783151
 20
676.7103895580285
 30
0.0
 10
1425.584208322753
 20
639.047375083776
 30
0.0
 10
1447.021673631446
 20
604.177473616791
 30
0.0
 10
1452.292673201127
 20
558.458270290433
 30
0.0
 10
1455.813563109764
 20
544.9438408055009
 30
0.0
 10
1460.223977259506
 20
527.9391827819778
 30
0.0
 10
1461.87004496826
 20
450.8520198596029
 30
0.0
 10
1452.781877082757
 20
415.1136092478357
 30
0.0
 10
1448.18336059543
 20
397.0290853320795
 30
0.0
 10
1438.546044127308
 20
351.9355117585674
 30
0.0
 10
1415.774636966733
 20
315.352363176548
 30
0.0
 10
1393.591652503218
 20
279.7012857929452
 30
0.0
 10
1374.825515996049
 20
251.5248647599039
 30
0.0
 10
1350.299865057119
 20
227.7867631684447
 30
0.0
 10
1324.972884379688
 20
203.2638683077218
 30
0.0
 10
1294.970906044703
 20
183.2232178849949
 30
0.0
 10
1266.867865593907
 20
175.0753894325277
 30
0.0
 10
1228.330313053795
 20
163.8957026981662
 30
0.0
 10
1198.82167271775
 20
166.4335339615687
 30
0.0
 10
1166.797421998842
 20
175.2984595123557
 30
0.0
 10
1140.805537454124
 20
182.4820051023695
 30
0.0
 10
1121.302150026751
 20
189.2354302373018
 30
0.0
 10
1078.971544855124
 20
228.4442600755517
 30
0.0
 10
1067.84043399915
 20
238.7433798229781
 30
0.0
 10
1045.837972658152
 20
260.7444631248731
 30
0.0
 10
1025.108819448497
 20
293.1282097948251
 30
0.0
 10
1014.145829363111
 20
310.2605086902806
 30
0.0
 10
1007.768953413124
 20
342.6521790850759
 30
0.0
 10
1004.676633665577
 20
359.9398518894155
 30
0.0
 10
1003.202820844721
 20
368.0597750500434
 30
0.0
 10
1006.138733154056
 20
379.6139439106952
 30
0.0
 10
1005.537908105068
 20
387.2279544655664
 30
0.0
 10
1002.61784324542
 20
424.6956318969424
 30
0.0
 10
1003.791243541781
 20
467.0918661808585
 30
0.0
 10
1003.791243541781
 20
488.0011980032554
 30
0.0
 10
1003.791243541781
 20
508.9222431580293
 30
0.0
 10
1001.744855473552
 20
537.963383728319
 30
0.0
 10
1003.490831017287
 20
561.7772774704533
 30
0.0
  0
SPLINE
  5
63
330
52
100
AcDbEntity
  8
\U+30EC\U+30A4\U+30E4\U+30FC 1
 62
   250
420
  2234132
370
     5
100
AcDbSpline
210
0.0
220
0.0
230
1.0
 70
    11
 71
     3
 72
    74
 73
    70
 74
     0
 42
0.0000000001
 43
0.0000000001
 40
0.0
 40
0.0
 40
0.0
 40
0.0
 40
1.0
 40
1.0
 40
1.0
 40
2.0
 40
2.0
 40
2.0
 40
3.0
 40
3.0
 40
3.0
 40
4.0
 40
4.0
 40
4.0
 40
5.0
 40
5.0
 40
5.0
 40
6.0
 40
6.0
 40
6.0
 40
7.0
 40
7.0
 40
7.0
 40
8.0
 40
8.0
 40
8.0
 40
9.0
 40
9.0
 40
9.0
 40
10.0
 40
10.0
 40
10.0
 40
11.0
 40
11.0
 40
11.0
 40
12.0
 40
12.0
 40
12.0
 40
13.0
 40
13.0
 40
13.0
 40
14.0
 40
14.0
 40
14.0
 40
15.0
 40
15.0
 40
15.0
 40
16.0
 40
16.0
 40
16.0
 40
17.0
 40
17.0
 40
17.0
 40
18.0
 40
18.0
 40
18.0
 40
19.0
 40
19.0
 40
19.0
 40
20.0
 40
20.0
 40
20.0
 40
21.0
 40
21.0
 40
21.0
 40
22.0
 40
22.0
 40
22.0
 40
23.0
 40
23.0
 40
23.0
 40
23.0
 10
987.440809582495
 20
552.191120704037
 30
0.0
 10
987.7412221069893
 20
558.6494732159999
 30
0.0
 10
991.5384088558147
 20
600.252990505809
 30
0.0
 10
993.2850734191013
 20
612.0143819966022
 30
0.0
 10
994.946988577542
 20
623.257803039486
 30
0.0
 10
996.1968700441305
 20
629.1585664793228
 30
0.0
 10
998.8323698289712
 20
637.876041846069
 30
0.0
 10
1001.420327264752
 20
646.4581248709273
 30
0.0
 10
1007.300420118041
 20
663.7058345412747
 30
0.0
 10
1012.632053408263
 20
671.4791808674515
 30
0.0
 10
1019.593217938
 20
681.6508319978334
 30
0.0
 10
1026.194714261806
 20
692.8346528495044
 30
0.0
 10
1047.435808998295
 20
706.7714513195626
 30
0.0
 10
1054.253657461301
 20
711.2376760529842
 30
0.0
 10
1068.417143363833
 20
720.7003260647776
 30
0.0
 10
1092.337835136464
 20
725.7205225176793
 30
0.0
 10
1119.263341173589
 20
731.3820239182257
 30
0.0
 10
1132.381584416356
 20
732.8243140945964
 30
0.0
 10
1159.563405726674
 20
735.5297493639237
 30
0.0
 10
1195.108546354219
 20
739.039614959735
 30
0.0
 10
1241.019986135472
 20
736.6132326088026
 30
0.0
 10
1256.353427236607
 20
736.1791502912995
 30
0.0
 10
1271.678600103124
 20
735.7407616015988
 30
0.0
 10
1294.29428884504
 20
733.2108540630396
 30
0.0
 10
1330.812325079433
 20
726.8121017422895
 30
0.0
 10
1369.349877619544
 20
720.0548869998235
 30
0.0
 10
1393.559268584293
 20
709.978837332225
 30
0.0
 10
1416.8639768778
 20
696.0937153285362
 30
0.0
 10
1444.67418401917
 20
679.5431211895125
 30
0.0
 10
1456.458485410054
 20
658.3509468411869
 30
0.0
 10
1465.70788387063
 20
645.1314177243363
 30
0.0
 10
1478.181204813106
 20
627.2660020259865
 30
0.0
 10
1487.64626639333
 20
593.0175961945378
 30
0.0
 10
1495.481107714486
 20
555.0956826237745
 30
0.0
 10
1501.838002097477
 20
524.3891817972861
 30
0.0
 10
1500.952611973681
 20
505.0695903353007
 30
0.0
 10
1500.952611973681
 20
479.1441961773116
 30
0.0
 10
1500.952611973681
 20
454.7487699336333
 30
0.0
 10
1496.538063706629
 20
428.4049686529398
 30
0.0
 10
1491.066559447434
 20
402.0572055098246
 30
0.0
 10
1485.587475973172
 20
375.6975567794444
 30
0.0
 10
1475.72967324854
 20
349.3418699114859
 30
0.0
 10
1452.954131970655
 20
310.356110153064
 30
0.0
 10
1430.182035790529
 20
271.3624266697989
 30
0.0
 10
1403.681654816736
 20
244.3571666195767
 30
0.0
 10
1380.689761399651
 20
223.4480070520677
 30
0.0
 10
1357.710270334495
 20
202.5386752296708
 30
0.0
 10
1328.57370055631
 20
185.1076863586
 30
0.0
 10
1286.526971439939
 20
170.5133909814348
 30
0.0
 10
1244.48093134312
 20
155.9192678591575
 30
0.0
 10
1227.413228030626
 20
157.4451016561587
 30
0.0
 10
1215.144545894973
 20
157.4451016561587
 30
0.0
 10
1202.883442974387
 20
157.4451016561587
 30
0.0
 10
1178.113190094643
 20
158.9511261410517
 30
0.0
 10
1135.181759874027
 20
176.6651297929391
 30
0.0
 10
1106.902330418023
 20
188.3469395255235
 30
0.0
 10
1083.793992696719
 20
208.9055603961598
 30
0.0
 10
1059.849185239782
 20
233.0141822514879
 30
0.0
 10
1036.656787133184
 20
256.3736675993471
 30
0.0
 10
1018.099423550148
 20
278.0359255367465
 30
0.0
 10
1007.584985192849
 20
303.8738142116833
 30
0.0
 10
998.5760545557788
 20
326.0419847548394
 30
0.0
 10
992.7000958197993
 20
359.0673808822118
 30
0.0
 10
992.1109841031879
 20
366.3186226431695
 30
0.0
 10
991.56665865743
 20
373.0560280735273
 30
0.0
 10
988.7106726160797
 20
406.3003601634181
 30
0.0
 10
988.3137973543626
 20
412.2090473280982
 30
0.0
 10
984.821157247341
 20
464.187304261121
 30
0.0
 10
985.3937324947142
 20
508.6195913199924
 30
0.0
 10
987.440809582495
 20
552.191120704037
 30
0.0
  0
SPLINE
  5
64
330
52
100
AcDbEntity
  8
\U+30EC\U+30A4\U+30E4\U+30FC 1
 62
   250
420
  2234132
370
     5
100
AcDbSpline
210
0.0
220
0.0
230
1.0
 70
     8
 71
     3
 72
     8
 73
     4
 74
     0
 42
0.0000000001
 43
0.0000000001
 40
0.0
 40
0.0
 40
0.0
 40
0.0
 40
1.0
 40
1.0
 40
1.0
 40
1.0
 10
1358.634934572732
 20
481.8136301750682
 30
0.0
 10
1358.48266125183
 20
480.3634162738543
 30
0.0
 10
1356.01183713982
 20
471.8013148159921
 30
0.0
 10
1354.401598447749
 20
470.0601624091183
 30
0.0
  0
SPLINE
  5
65
330
52
100
AcDbEntity
  8
\U+30EC\U+30A4\U+30E4\U+30FC 1
 62
   250
420
  2234132
370
     5
100
AcDbSpline
210
0.0
220
0.0
230
1.0
 70
     8
 71
     3
 72
    11
 73
     7
 74
     0
 42
0.0000000001
 43
0.0000000001
 40
0.0
 40
0.0
 40
0.0
 40
0.0
 40
1.0
 40
1.0
 40
1.0
 40
2.0
 40
2.0
 40
2.0
 40
2.0
 10
1354.974173695122
 20
483.411294260323
 30
0.0
 10
1354.837747823907
 20
481.8136301750682
 30
0.0
 10
1353.600268709247
 20
477.2834988782365
 30
0.0
 10
1353.091772280172
 20
476.0005444731716
 30
0.0
 10
1352.971193858643
 20
475.7376835142391
 30
0.0
 10
1352.843036222047
 20
475.4548409883105
 30
0.0
 10
1352.694897018454
 20
475.1838840496468
 30
0.0
  0
SPLINE
  5
66
330
52
100
AcDbEntity
  8
\U+30EC\U+30A4\U+30E4\U+30FC 1
 62
   250
420
  2234132
370
     5
100
AcDbSpline
210
0.0
220
0.0
230
1.0
 70
     8
 71
     3
 72
    17
 73
    13
 74
     0
 42
0.0000000001
 43
0.0000000001
 40
0.0
 40
0.0
 40
0.0
 40
0.0
 40
1.0
 40
1.0
 40
1.0
 40
2.0
 40
2.0
 40
2.0
 40
3.0
 40
3.0
 40
3.0
 40
4.0
 40
4.0
 40
4.0
 40
4.0
 10
1352.694897018454
 20
475.1838840496468
 30
0.0
 10
1351.657233573756
 20
473.251528717206
 30
0.0
 10
1349.874739993787
 20
471.3629261262915
 30
0.0
 10
1349.874739993787
 20
471.3629261262915
 30
0.0
 10
1349.874739993787
 20
471.3629261262915
 30
0.0
 10
1354.401598447749
 20
470.0601624091183
 30
0.0
 10
1354.401598447749
 20
470.0601624091183
 30
0.0
 10
1354.401598447749
 20
470.0601624091183
 30
0.0
 10
1355.411012090831
 20
470.7812213698596
 30
0.0
 10
1358.046511875672
 20
471.8013148159921
 30
0.0
 10
1360.670298328136
 20
472.8052163026621
 30
0.0
 10
1361.406860228788
 20
472.5184119143118
 30
0.0
 10
1363.305798112976
 20
471.8013148159921
 30
0.0
  0
SPLINE
  5
67
330
52
100
AcDbEntity
  8
\U+30EC\U+30A4\U+30E4\U+30FC 1
 62
   250
420
  2234132
370
     5
100
AcDbSpline
210
0.0
220
0.0
230
1.0
 70
     8
 71
     3
 72
    11
 73
     7
 74
     0
 42
0.0000000001
 43
0.0000000001
 40
0.0
 40
0.0
 40
0.0
 40
0.0
 40
1.0
 40
1.0
 40
1.0
 40
2.0
 40
2.0
 40
2.0
 40
2.0
 10
1364.767897601455
 20
470.7812213698596
 30
0.0
 10
1364.767897601455
 20
470.7812213698596
 30
0.0
 10
1358.198785196574
 20
470.7812213698596
 30
0.0
 10
1358.198785196574
 20
470.7812213698596
 30
0.0
 10
1357.46566839368
 20
470.7812213698596
 30
0.0
 10
1356.552028468268
 20
470.8570135205348
 30
0.0
 10
1355.654925012095
 20
471.2035903549857
 30
0.0
  0
SPLINE
  5
68
330
52
100
AcDbEntity
  8
\U+30EC\U+30A4\U+30E4\U+30FC 1
 62
   250
420
  2234132
370
     5
100
AcDbSpline
210
0.0
220
0.0
230
1.0
 70
     8
 71
     3
 72
     8
 73
     4
 74
     0
 42
0.0000000001
 43
0.0000000001
 40
0.0
 40
0.0
 40
0.0
 40
0.0
 40
1.0
 40
1.0
 40
1.0
 40
1.0
 10
1352.334539792972
 20
475.0683010198671
 30
0.0
 10
1351.437436336798
 20
477.2635173112403
 30
0.0
 10
1350.752550902516
 20
480.3513584317014
 30
0.0
 10
1350.752550902516
 20
484.4312154515675
 30
0.0
  0
SPLINE
  5
69
330
52
100
AcDbEntity
  8
\U+30EC\U+30A4\U+30E4\U+30FC 1
 62
   250
420
  2234132
370
     5
100
AcDbSpline
210
0.0
220
0.0
230
1.0
 70
     8
 71
     3
 72
    14
 73
    10
 74
     0
 42
0.0000000001
 43
0.0000000001
 40
0.0
 40
0.0
 40
0.0
 40
0.0
 40
1.0
 40
1.0
 40
1.0
 40
2.0
 40
2.0
 40
2.0
 40
3.0
 40
3.0
 40
3.0
 40
3.0
 10
1364.767897601455
 20
498.0851713956971
 30
0.0
 10
1364.767897601455
 20
498.0851713956971
 30
0.0
 10
1358.198785196574
 20
498.0851713956971
 30
0.0
 10
1358.198785196574
 20
498.0851713956971
 30
0.0
 10
1356.724283356166
 20
498.0851713956971
 30
0.0
 10
1354.537335299412
 20
497.7863091651939
 30
0.0
 10
1353.231643249145
 20
495.6150363032386
 30
0.0
 10
1351.917682964258
 20
493.4396293239736
 30
0.0
 10
1350.752550902516
 20
489.7979887389203
 30
0.0
 10
1350.752550902516
 20
484.4312154515675
 30
0.0
  0
SPLINE
  5
6A
330
52
100
AcDbEntity
  8
\U+30EC\U+30A4\U+30E4\U+30FC 1
 62
   250
420
  2234132
370
     5
100
AcDbSpline
210
0.0
220
0.0
230
1.0
 70
     8
 71
     3
 72
    11
 73
     7
 74
     0
 42
0.0000000001
 43
0.0000000001
 40
0.0
 40
0.0
 40
0.0
 40
0.0
 40
1.0
 40
1.0
 40
1.0
 40
2.0
 40
2.0
 40
2.0
 40
2.0
 10
1373.383398074566
 20
484.2837652675268
 30
0.0
 10
1373.383398074566
 20
480.0724777681944
 30
0.0
 10
1376.596296243641
 20
468.0241096341629
 30
0.0
 10
1385.785060983676
 20
468.0241096341629
 30
0.0
 10
1394.981404938779
 20
468.0241096341629
 30
0.0
 10
1407.542920383859
 20
467.8728698425884
 30
0.0
 10
1412.802206621164
 20
469.4744957902648
 30
0.0
  0
SPLINE
  5
6B
330
52
100
AcDbEntity
  8
\U+30EC\U+30A4\U+30E4\U+30FC 1
 62
   250
420
  2234132
370
     5
100
AcDbSpline
210
0.0
220
0.0
230
1.0
 70
     8
 71
     3
 72
    11
 73
     7
 74
     0
 42
0.0000000001
 43
0.0000000001
 40
0.0
 40
0.0
 40
0.0
 40
0.0
 40
1.0
 40
1.0
 40
1.0
 40
2.0
 40
2.0
 40
2.0
 40
2.0
 10
1373.383398074566
 20
484.2837652675268
 30
0.0
 10
1373.383398074566
 20
488.495225021747
 30
0.0
 10
1376.596296243641
 20
500.5554787430435
 30
0.0
 10
1385.785060983676
 20
500.5554787430435
 30
0.0
 10
1394.981404938779
 20
500.5554787430435
 30
0.0
 10
1407.542920383859
 20
500.6948329473531
 30
0.0
 10
1412.802206621164
 20
499.089245137255
 30
0.0
  0
SPLINE
  5
6C
330
52
100
AcDbEntity
  8
\U+30EC\U+30A4\U+30E4\U+30FC 1
 62
   250
420
  2234132
370
     5
100
AcDbSpline
210
0.0
220
0.0
230
1.0
 70
     8
 71
     3
 72
    23
 73
    19
 74
     0
 42
0.0000000001
 43
0.0000000001
 40
0.0
 40
0.0
 40
0.0
 40
0.0
 40
1.0
 40
1.0
 40
1.0
 40
2.0
 40
2.0
 40
2.0
 40
3.0
 40
3.0
 40
3.0
 40
4.0
 40
4.0
 40
4.0
 40
5.0
 40
5.0
 40
5.0
 40
6.0
 40
6.0
 40
6.0
 40
6.0
 10
1360.822571649038
 20
484.2837652675268
 30
0.0
 10
1360.822571649038
 20
489.2283418246413
 30
0.0
 10
1362.85724638489
 20
496.1967410596704
 30
0.0
 10
1365.352186181206
 20
498.3719757840474
 30
0.0
 10
1367.827833430077
 20
500.5554787430435
 30
0.0
 10
1375.41876182997
 20
503.6033567295123
 30
0.0
 10
1379.07952270758
 20
503.6033567295123
 30
0.0
 10
1382.712722803126
 20
503.6033567295123
 30
0.0
 10
1400.685797806412
 20
502.5834355382677
 30
0.0
 10
1402.872745863167
 20
502.5834355382677
 30
0.0
 10
1405.05969391992
 20
502.5834355382677
 30
0.0
 10
1409.141445743554
 20
500.8422831313939
 30
0.0
 10
1411.335973015375
 20
499.8263238025709
 30
0.0
 10
1413.523610091681
 20
498.8064026113264
 30
0.0
 10
1418.782896328985
 20
498.2207359924729
 30
0.0
 10
1419.804023304445
 20
498.2207359924729
 30
0.0
 10
1420.829284397214
 20
498.2207359924729
 30
0.0
 10
1427.250257598503
 20
495.4557005319328
 30
0.0
 10
1427.250257598503
 20
484.4312154515675
 30
0.0
  0
SPLINE
  5
6D
330
52
100
AcDbEntity
  8
\U+30EC\U+30A4\U+30E4\U+30FC 1
 62
   250
420
  2234132
370
     5
100
AcDbSpline
210
0.0
220
0.0
230
1.0
 70
     8
 71
     3
 72
    23
 73
    19
 74
     0
 42
0.0000000001
 43
0.0000000001
 40
0.0
 40
0.0
 40
0.0
 40
0.0
 40
1.0
 40
1.0
 40
1.0
 40
2.0
 40
2.0
 40
2.0
 40
3.0
 40
3.0
 40
3.0
 40
4.0
 40
4.0
 40
4.0
 40
5.0
 40
5.0
 40
5.0
 40
6.0
 40
6.0
 40
6.0
 40
6.0
 10
1360.822571649038
 20
484.2837652675268
 30
0.0
 10
1360.822571649038
 20
479.3512465525652
 30
0.0
 10
1362.85724638489
 20
472.3788854551144
 30
0.0
 10
1365.352186181206
 20
470.2115744555807
 30
0.0
 10
1367.827833430077
 20
468.0361674763158
 30
0.0
 10
1375.41876182997
 20
464.9801935101158
 30
0.0
 10
1379.07952270758
 20
464.9801935101158
 30
0.0
 10
1382.712722803126
 20
464.9801935101158
 30
0.0
 10
1400.685797806412
 20
465.9842672516738
 30
0.0
 10
1402.872745863167
 20
465.9842672516738
 30
0.0
 10
1405.05969391992
 20
465.9842672516738
 30
0.0
 10
1409.141445743554
 20
467.7254196585476
 30
0.0
 10
1411.335973015375
 20
468.7453408497922
 30
0.0
 10
1413.523610091681
 20
469.77318576588
 30
0.0
 10
1418.782896328985
 20
470.3430049350469
 30
0.0
 10
1419.804023304445
 20
470.3430049350469
 30
0.0
 10
1420.829284397214
 20
470.3430049350469
 30
0.0
 10
1427.250257598503
 20
473.1040785331653
 30
0.0
 10
1427.250257598503
 20
484.1483729256389
 30
0.0
  0
SPLINE
  5
6E
330
52
100
AcDbEntity
  8
\U+30EC\U+30A4\U+30E4\U+30FC 1
 62
   250
420
  2234132
370
     5
100
AcDbSpline
210
0.0
220
0.0
230
1.0
 70
     8
 71
     3
 72
     8
 73
     4
 74
     0
 42
0.0000000001
 43
0.0000000001
 40
0.0
 40
0.0
 40
0.0
 40
0.0
 40
1.0
 40
1.0
 40
1.0
 40
1.0
 10
1435.140909503339
 20
484.2837652675268
 30
0.0
 10
1435.140909503339
 20
472.8052163026621
 30
0.0
 10
1424.891054653851
 20
466.8448526716126
 30
0.0
 10
1415.410145623941
 20
469.6856802828278
 30
0.0
  0
SPLINE
  5
6F
330
52
100
AcDbEntity
  8
\U+30EC\U+30A4\U+30E4\U+30FC 1
 62
   250
420
  2234132
370
     5
100
AcDbSpline
210
0.0
220
0.0
230
1.0
 70
     8
 71
     3
 72
     8
 73
     4
 74
     0
 42
0.0000000001
 43
0.0000000001
 40
0.0
 40
0.0
 40
0.0
 40
0.0
 40
1.0
 40
1.0
 40
1.0
 40
1.0
 10
1435.140909503339
 20
484.2837652675268
 30
0.0
 10
1435.140909503339
 20
495.8260485409137
 30
0.0
 10
1424.798726033938
 20
501.7826225644295
 30
0.0
 10
1415.273719752725
 20
498.8461934904308
 30
0.0
  0
SPLINE
  5
70
330
52
100
AcDbEntity
  8
\U+30EC\U+30A4\U+30E4\U+30FC 1
 62
   250
420
  2234132
370
     5
100
AcDbSpline
210
0.0
220
0.0
230
1.0
 70
     8
 71
     3
 72
    14
 73
    10
 74
     0
 42
0.0000000001
 43
0.0000000001
 40
0.0
 40
0.0
 40
0.0
 40
0.0
 40
1.0
 40
1.0
 40
1.0
 40
2.0
 40
2.0
 40
2.0
 40
3.0
 40
3.0
 40
3.0
 40
3.0
 10
1450.902920765565
 20
484.2837652675268
 30
0.0
 10
1450.902920765565
 20
476.5903452093347
 30
0.0
 10
1447.682443381422
 20
462.9322551478955
 30
0.0
 10
1442.871708872205
 20
457.8603822286243
 30
0.0
 10
1438.04926103061
 20
452.7685277423569
 30
0.0
 10
1433.807656671008
 20
450.0193397315035
 30
0.0
 10
1429.297334686284
 20
452.1947467107684
 30
0.0
 10
1425.023346407757
 20
454.2506087978321
 30
0.0
 10
1414.909228409933
 20
459.6532111018676
 30
0.0
 10
1409.005019872338
 20
467.5779694745069
 30
0.0
  0
SPLINE
  5
71
330
52
100
AcDbEntity
  8
\U+30EC\U+30A4\U+30E4\U+30FC 1
 62
   250
420
  2234132
370
     5
100
AcDbSpline
210
0.0
220
0.0
230
1.0
 70
     8
 71
     3
 72
    14
 73
    10
 74
     0
 42
0.0000000001
 43
0.0000000001
 40
0.0
 40
0.0
 40
0.0
 40
0.0
 40
1.0
 40
1.0
 40
1.0
 40
2.0
 40
2.0
 40
2.0
 40
3.0
 40
3.0
 40
3.0
 40
3.0
 10
1450.902920765565
 20
484.2837652675268
 30
0.0
 10
1450.902920765565
 20
491.985453560338
 30
0.0
 10
1447.682443381422
 20
505.6394095044676
 30
0.0
 10
1442.871708872205
 20
510.7192061485821
 30
0.0
 10
1438.04926103061
 20
515.7991750475845
 30
0.0
 10
1433.807656671008
 20
518.5642105081246
 30
0.0
 10
1429.297334686284
 20
516.384841666438
 30
0.0
 10
1425.05504130713
 20
514.332941441796
 30
0.0
 10
1415.02911781191
 20
508.9780537417083
 30
0.0
 10
1409.109061824629
 20
501.141145361897
 30
0.0
  0
SPLINE
  5
72
330
52
100
AcDbEntity
  8
\U+30EC\U+30A4\U+30E4\U+30FC 1
 62
   250
420
  2234132
370
     5
100
AcDbSpline
210
0.0
220
0.0
230
1.0
 70
     8
 71
     3
 72
    26
 73
    22
 74
     0
 42
0.0000000001
 43
0.0000000001
 40
0.0
 40
0.0
 40
0.0
 40
0.0
 40
1.0
 40
1.0
 40
1.0
 40
2.0
 40
2.0
 40
2.0
 40
3.0
 40
3.0
 40
3.0
 40
4.0
 40
4.0
 40
4.0
 40
5.0
 40
5.0
 40
5.0
 40
6.0
 40
6.0
 40
6.0
 40
7.0
 40
7.0
 40
7.0
 40
7.0
 10
1076.78459679837
 20
676.9692886545394
 30
0.0
 10
1079.996805947894
 20
674.7940539301622
 30
0.0
 10
1074.593514624307
 20
653.3786372471209
 30
0.0
 10
1074.593514624307
 20
653.3786372471209
 30
0.0
 10
1069.117876247802
 20
630.5092170553316
 30
0.0
 10
1072.843404963262
 20
609.8110697254979
 30
0.0
 10
1083.578329577071
 20
588.6865915481162
 30
0.0
 10
1094.853445519328
 20
566.4825919882774
 30
0.0
 10
1112.702497003327
 20
535.1027468049955
 30
0.0
 10
1112.702497003327
 20
479.3393609653002
 30
0.0
 10
1112.702497003327
 20
479.3393609653002
 30
0.0
 10
1112.702497003327
 20
477.8970707889295
 30
0.0
 10
1112.702497003327
 20
477.8970707889295
 30
0.0
 10
1112.702497003327
 20
422.1336849492342
 30
0.0
 10
1094.853445519328
 20
390.7579738832619
 30
0.0
 10
1083.578329577071
 20
368.5458783436918
 30
0.0
 10
1072.843404963262
 20
347.4134764414669
 30
0.0
 10
1069.117876247802
 20
326.715329111633
 30
0.0
 10
1074.593514624307
 20
303.8577945071088
 30
0.0
 10
1074.593514624307
 20
303.8577945071088
 30
0.0
 10
1079.996805947894
 20
282.4304922368024
 30
0.0
 10
1076.78459679837
 20
280.2552575124254
 30
0.0
  0
SPLINE
  5
73
330
52
100
AcDbEntity
  8
\U+30EC\U+30A4\U+30E4\U+30FC 1
 62
   250
420
  2234132
370
     5
100
AcDbSpline
210
0.0
220
0.0
230
1.0
 70
     8
 71
     3
 72
    56
 73
    52
 74
     0
 42
0.0000000001
 43
0.0000000001
 40
0.0
 40
0.0
 40
0.0
 40
0.0
 40
1.0
 40
1.0
 40
1.0
 40
2.0
 40
2.0
 40
2.0
 40
3.0
 40
3.0
 40
3.0
 40
4.0
 40
4.0
 40
4.0
 40
5.0
 40
5.0
 40
5.0
 40
6.0
 40
6.0
 40
6.0
 40
7.0
 40
7.0
 40
7.0
 40
8.0
 40
8.0
 40
8.0
 40
9.0
 40
9.0
 40
9.0
 40
10.0
 40
10.0
 40
10.0
 40
11.0
 40
11.0
 40
11.0
 40
12.0
 40
12.0
 40
12.0
 40
13.0
 40
13.0
 40
13.0
 40
14.0
 40
14.0
 40
14.0
 40
15.0
 40
15.0
 40
15.0
 40
16.0
 40
16.0
 40
16.0
 40
17.0
 40
17.0
 40
17.0
 40
17.0
 10
1115.329728553549
 20
479.0007078556926
 30
0.0
 10
1115.329728553549
 20
444.4413819515877
 30
0.0
 10
1108.3203326552
 20
410.0775653452473
 30
0.0
 10
1104.22686749919
 20
393.5149133640707
 30
0.0
 10
1099.211494183149
 20
373.2114019824114
 30
0.0
 10
1091.672931269178
 20
358.1707941907022
 30
0.0
 10
1090.80407761462
 20
324.7629922121961
 30
0.0
 10
1090.095076496031
 20
298.323761723607
 30
0.0
 10
1090.183270998635
 20
280.0240914528662
 30
0.0
 10
1080.29377337463
 20
271.6931560545632
 30
0.0
 10
1072.69113164236
 20
265.3102511834997
 30
0.0
 10
1053.476443407105
 20
272.6533047997071
 30
0.0
 10
1047.291803912012
 20
277.1992835462255
 30
0.0
 10
1038.247044258259
 20
283.8927639801693
 30
0.0
 10
1035.026566874117
 20
299.0527444091917
 30
0.0
 10
1032.403469441205
 20
305.8140932689674
 30
0.0
 10
1029.891993175651
 20
312.2724457809302
 30
0.0
 10
1024.007766205052
 20
325.1255887512216
 30
0.0
 10
1020.723210002611
 20
342.9789466074185
 30
0.0
 10
1016.937736586163
 20
363.6093977663085
 30
0.0
 10
1010.604957887478
 20
392.1044903419611
 30
0.0
 10
1009.920072453195
 20
401.9495462048883
 30
0.0
 10
1008.746672156833
 20
418.4961784814903
 30
0.0
 10
1006.995873476237
 20
454.5096801492308
 30
0.0
 10
1006.995873476237
 20
478.3194397740556
 30
0.0
 10
1006.995873476237
 20
478.3194397740556
 30
0.0
 10
1006.995873476237
 20
478.9051063929091
 30
0.0
 10
1006.995873476237
 20
478.9051063929091
 30
0.0
 10
1006.995873476237
 20
502.7109041553123
 30
0.0
 10
1008.746672156833
 20
538.7362914103177
 30
0.0
 10
1009.920072453195
 20
555.2829236869197
 30
0.0
 10
1010.604957887478
 20
565.1119598452723
 30
0.0
 10
1016.937736586163
 20
593.6272062428092
 30
0.0
 10
1020.723210002611
 20
614.2375035798149
 30
0.0
 10
1024.007766205052
 20
632.098957415743
 30
0.0
 10
1029.891993175651
 20
644.9560622484561
 30
0.0
 10
1032.403469441205
 20
651.4183766228407
 30
0.0
 10
1035.026566874117
 20
658.1757636201946
 30
0.0
 10
1038.247044258259
 20
673.3436677740605
 30
0.0
 10
1047.291803912012
 20
680.0252626207392
 30
0.0
 10
1053.476443407105
 20
684.5791650921009
 30
0.0
 10
1072.69113164236
 20
691.938066157995
 30
0.0
 10
1080.29377337463
 20
685.5434479545544
 30
0.0
 10
1090.183270998635
 20
677.2123403013635
 30
0.0
 10
1090.095076496031
 20
658.9049185606672
 30
0.0
 10
1090.80407761462
 20
632.4613816998807
 30
0.0
 10
1091.672931269178
 20
599.069599425949
 30
0.0
 10
1099.211494183149
 20
584.017106046975
 30
0.0
 10
1104.22686749919
 20
563.7054986855844
 30
0.0
 10
1108.3203326552
 20
547.1469808217174
 30
0.0
 10
1115.329728553549
 20
513.1774556537756
 30
0.0
 10
1115.329728553549
 20
478.6222638669805
 30
0.0
  0
SPLINE
  5
74
330
52
100
AcDbEntity
  8
\U+30EC\U+30A4\U+30E4\U+30FC 1
 62
   250
420
  2234132
370
     5
100
AcDbSpline
210
0.0
220
0.0
230
1.0
 70
     8
 71
     3
 72
    20
 73
    16
 74
     0
 42
0.0000000001
 43
0.0000000001
 40
0.0
 40
0.0
 40
0.0
 40
0.0
 40
1.0
 40
1.0
 40
1.0
 40
2.0
 40
2.0
 40
2.0
 40
3.0
 40
3.0
 40
3.0
 40
4.0
 40
4.0
 40
4.0
 40
5.0
 40
5.0
 40
5.0
 40
5.0
 10
1034.445723392124
 20
299.4193028106389
 30
0.0
 10
1038.247044258259
 20
292.749765806113
 30
0.0
 10
1049.198321011268
 20
284.3270185525603
 30
0.0
 10
1053.419943803874
 20
282.2871761700712
 30
0.0
 10
1058.987910800292
 20
279.6137803098929
 30
0.0
 10
1068.989718611206
 20
274.6931471821962
 30
0.0
 10
1077.069161873178
 20
280.4025354415783
 30
0.0
 10
1085.597156863236
 20
286.4028622066201
 30
0.0
 10
1082.76873160395
 20
305.5312507430387
 30
0.0
 10
1085.260226302508
 20
324.4005679280586
 30
0.0
 10
1087.735873551379
 20
343.2698851130784
 30
0.0
 10
1091.508944615899
 20
365.3464160558727
 30
0.0
 10
1095.318533716653
 20
378.1279009927985
 30
0.0
 10
1107.883494259491
 20
420.2412927507859
 30
0.0
 10
1114.845347808779
 20
451.5015930418666
 30
0.0
 10
1114.556648616662
 20
478.2238383112722
 30
0.0
  0
ENDBLK
  5
55
330
52
100
AcDbEntity
  8
0
100
AcDbBlockEnd
  0
BLOCK
  5
77
330
75
100
AcDbEntity
  8
0
100
AcDbBlockBegin
  2
block 5
 70
     0
 71
     0
 10
0.0
 20
0.0
 30
0.0
  3
block 5
  1

  0
SPLINE
  5
79
330
75
100
AcDbEntity
  8
\U+30EC\U+30A4\U+30E4\U+30FC 1
  6
AI-Linetype-3
 62
   250
420
  2234132
370
    13
100
AcDbSpline
210
0.0
220
0.0
230
1.0
 70
     8
 71
     3
 72
    38
 73
    34
 74
     0
 42
0.0000000001
 43
0.0000000001
 40
0.0
 40
0.0
 40
0.0
 40
0.0
 40
1.0
 40
1.0
 40
1.0
 40
2.0
 40
2.0
 40
2.0
 40
3.0
 40
3.0
 40
3.0
 40
4.0
 40
4.0
 40
4.0
 40
5.0
 40
5.0
 40
5.0
 40
6.0
 40
6.0
 40
6.0
 40
7.0
 40
7.0
 40
7.0
 40
8.0
 40
8.0
 40
8.0
 40
9.0
 40
9.0
 40
9.0
 40
10.0
 40
10.0
 40
10.0
 40
11.0
 40
11.0
 40
11.0
 40
11.0
 10
-386.2869260129792
 20
-277.1932546251491
 30
0.0
 10
-386.2869260129792
 20
-277.1932546251491
 30
0.0
 10
-366.7490876080269
 20
-270.8907927867339
 30
0.0
 10
-330.5821068351692
 20
-263.7170657253303
 30
0.0
 10
-294.4152983171995
 20
-256.5357594488592
 30
0.0
 10
-230.548009021451
 20
-243.0595705490404
 30
0.0
 10
-195.549605408094
 20
-235.6057570399145
 30
0.0
 10
-160.5429335601179
 20
-228.1364405908778
 30
0.0
 10
-142.4575483699222
 20
-225.5760439371606
 30
0.0
 10
-101.3330719233577
 20
-217.2437304997545
 30
0.0
 10
-60.20446135948369
 20
-208.9258864729318
 30
0.0
 10
-28.70696608776736
 20
-202.3509174018619
 30
0.0
 10
4.831060585989675
 20
-196.3209627961016
 30
0.0
 10
38.37322137705627
 20
-190.291352700117
 30
0.0
 10
67.54596468170004
 20
-187.1549357012687
 30
0.0
 10
93.7896858725248
 20
-186.8596908234114
 30
0.0
 10
120.0378856904349
 20
-186.5644459455541
 30
0.0
 10
170.7889988020717
 20
-186.284014988056
 30
0.0
 10
197.9132869798315
 20
-188.5867183294776
 30
0.0
 10
225.0334410402817
 20
-190.8518701053374
 30
0.0
 10
252.1535951007319
 20
-195.7377077456787
 30
0.0
 10
292.1136285051053
 20
-200.3358797232301
 30
0.0
 10
332.0736619094787
 20
-204.9188932706466
 30
0.0
 10
378.7437122170342
 20
-211.2365135391967
 30
0.0
 10
402.6588918332526
 20
-214.1073135009062
 30
0.0
 10
426.574071449471
 20
-216.970878757324
 30
0.0
 10
446.6961984341737
 20
-217.5313961625443
 30
0.0
 10
472.3597651625577
 20
-223.2733405957391
 30
0.0
 10
498.0316001255608
 20
-229.0152850289338
 30
0.0
 10
520.4864028021793
 20
-239.0601565618227
 30
0.0
 10
528.0766421825205
 20
-249.0819459397333
 30
0.0
 10
529.1728722891039
 20
-250.5288869980772
 30
0.0
 10
530.4375676760516
 20
-252.2331768589408
 30
0.0
 10
531.805960505514
 20
-254.0966302362223
 30
0.0
  0
SPLINE
  5
7B
330
75
100
AcDbEntity
  8
\U+30EC\U+30A4\U+30E4\U+30FC 1
  6
AI-Linetype-4
 62
   250
420
  2234132
370
    13
100
AcDbSpline
210
0.0
220
0.0
230
1.0
 70
     8
 71
     3
 72
    47
 73
    43
 74
     0
 42
0.0000000001
 43
0.0000000001
 40
0.0
 40
0.0
 40
0.0
 40
0.0
 40
1.0
 40
1.0
 40
1.0
 40
2.0
 40
2.0
 40
2.0
 40
3.0
 40
3.0
 40
3.0
 40
4.0
 40
4.0
 40
4.0
 40
5.0
 40
5.0
 40
5.0
 40
6.0
 40
6.0
 40
6.0
 40
7.0
 40
7.0
 40
7.0
 40
8.0
 40
8.0
 40
8.0
 40
9.0
 40
9.0
 40
9.0
 40
10.0
 40
10.0
 40
10.0
 40
11.0
 40
11.0
 40
11.0
 40
12.0
 40
12.0
 40
12.0
 40
13.0
 40
13.0
 40
13.0
 40
14.0
 40
14.0
 40
14.0
 40
14.0
 10
-374.9835602691069
 20
-291.0480597685678
 30
0.0
 10
-376.0598088086941
 20
-290.7224980304404
 30
0.0
 10
-377.0761126472928
 20
-290.2680896361653
 30
0.0
 10
-377.9804508087577
 20
-289.6693316458315
 30
0.0
 10
-384.9745160220837
 20
-284.927499091773
 30
0.0
 10
-391.9766772151408
 20
-283.2152855060661
 30
0.0
 10
-385.4146272606633
 20
-272.8830928201632
 30
0.0
 10
-378.8527495610736
 20
-262.573293269687
 30
0.0
 10
-367.4772090191721
 20
-255.2479819069331
 30
0.0
 10
-349.0996795391012
 20
-247.9305942690225
 30
0.0
 10
-330.7221500590304
 20
-240.6280205514711
 30
0.0
 10
-306.2347397052145
 20
-231.5832608977184
 30
0.0
 10
-271.2282401121263
 20
-224.7051232239479
 30
0.0
 10
-236.2337983611909
 20
-217.8345647652449
 30
0.0
 10
-199.482529008583
 20
-209.6534911194133
 30
0.0
 10
-159.670634807802
 20
-204.0703656928606
 30
0.0
 10
-119.8504723724018
 20
-198.4800055610162
 30
0.0
 10
-70.42365483892544
 20
-188.1474683653375
 30
0.0
 10
-27.10671817919416
 20
-179.9815531496409
 30
0.0
 10
16.19437103085051
 20
-171.8001349940335
 30
0.0
 10
48.14420763818721
 20
-167.0810400851776
 30
0.0
 10
77.44889818696092
 20
-163.6266405632694
 30
0.0
 10
106.7656465778875
 20
-160.1801647662045
 30
0.0
 10
129.5205172692245
 20
-160.1801647662045
 30
0.0
 10
164.9471465338961
 20
-162.3464422364108
 30
0.0
 10
200.3941018753397
 20
-164.4903265711904
 30
0.0
 10
267.326150136571
 20
-173.0879125359596
 30
0.0
 10
309.3187912181418
 20
-178.2466019187314
 30
0.0
 10
351.3193560245559
 20
-183.4128705165707
 30
0.0
 10
378.8797935784737
 20
-186.8596908234114
 30
0.0
 10
409.0688407217161
 20
-189.8669166563362
 30
0.0
 10
439.2578878649586
 20
-192.8669077839692
 30
0.0
 10
462.4409842076102
 20
-194.1546853258953
 30
0.0
 10
482.5669007998466
 20
-198.4800055610162
 30
0.0
 10
502.6972960191683
 20
-202.7674297207995
 30
0.0
 10
519.3260938772978
 20
-211.3653601953445
 30
0.0
 10
531.5778950339369
 20
-221.7054766060907
 30
0.0
 10
543.8296961905761
 20
-232.0073524317235
 30
0.0
 10
553.0122597546472
 20
-245.7867099342429
 30
0.0
 10
555.6329456191286
 20
-255.6799971657815
 30
0.0
 10
558.2536314836101
 20
-265.5729398875443
 30
0.0
 10
566.1360151538264
 20
-288.8135693627538
 30
0.0
 10
564.8237774178189
 20
-299.5626188773701
 30
0.0
  0
SPLINE
  5
7D
330
75
100
AcDbEntity
  8
\U+30EC\U+30A4\U+30E4\U+30FC 1
  6
AI-Linetype-5
 62
   250
420
  2234132
370
    13
100
AcDbSpline
210
0.0
220
0.0
230
1.0
 70
     8
 71
     3
 72
    35
 73
    31
 74
     0
 42
0.0000000001
 43
0.0000000001
 40
0.0
 40
0.0
 40
0.0
 40
0.0
 40
1.0
 40
1.0
 40
1.0
 40
2.0
 40
2.0
 40
2.0
 40
3.0
 40
3.0
 40
3.0
 40
4.0
 40
4.0
 40
4.0
 40
5.0
 40
5.0
 40
5.0
 40
6.0
 40
6.0
 40
6.0
 40
7.0
 40
7.0
 40
7.0
 40
8.0
 40
8.0
 40
8.0
 40
9.0
 40
9.0
 40
9.0
 40
10.0
 40
10.0
 40
10.0
 40
10.0
 10
-388.4716347561906
 20
-314.765835283255
 30
0.0
 10
-388.4716347561906
 20
-314.765835283255
 30
0.0
 10
-348.2273807867853
 20
-305.7517369995483
 30
0.0
 10
-315.8536249003314
 20
-298.8580963858669
 30
0.0
 10
-283.4798690138775
 20
-291.9723794970289
 30
0.0
 10
-229.2354267756676
 20
-280.7913147235643
 30
0.0
 10
-191.1722641968279
 20
-273.0419118268052
 30
0.0
 10
-153.1125467157461
 20
-265.3000881451137
 30
0.0
 10
-87.4768887408358
 20
-253.2484471682121
 30
0.0
 10
-54.23066184717813
 20
-245.9610318807958
 30
0.0
 10
-20.98064534598668
 20
-238.6281413029743
 30
0.0
 10
15.32207227853461
 20
-232.1892535933439
 30
0.0
 10
40.69797334412881
 20
-229.5985400793567
 30
0.0
 10
66.07352989994722
 20
-227.0229849955046
 30
0.0
 10
122.0742829751661
 20
-222.2887316565136
 30
0.0
 10
159.7016406876236
 20
-224.8718659554333
 30
0.0
 10
197.3252087925474
 20
-227.4625794694205
 30
0.0
 10
277.3930702951108
 20
-237.3479429761157
 30
0.0
 10
319.3819217691479
 20
-242.074961609815
 30
0.0
 10
361.3904103004053
 20
-246.8171386736493
 30
0.0
 10
395.0724420604452
 20
-251.5362335825052
 30
0.0
 10
425.2618337134634
 20
-254.1193678814248
 30
0.0
 10
455.4429571318626
 20
-256.710081395412
 30
0.0
 10
483.8874067704733
 20
-264.4594842921711
 30
0.0
 10
502.6972960191683
 20
-271.3224635358065
 30
0.0
 10
521.5106303656213
 20
-278.2157596397121
 30
0.0
 10
538.5759221096845
 20
-294.9871845450212
 30
0.0
 10
538.5759221096845
 20
-306.1682493184858
 30
0.0
 10
538.5759221096845
 20
-317.3489695821747
 30
0.0
 10
540.3243092218501
 20
-359.5200667276079
 30
0.0
 10
538.5759221096845
 20
-369.4054302343032
 30
0.0
  0
SPLINE
  5
7F
330
75
100
AcDbEntity
  8
\U+30EC\U+30A4\U+30E4\U+30FC 1
  6
AI-Linetype-6
 62
   250
420
  2234132
370
    13
100
AcDbSpline
210
0.0
220
0.0
230
1.0
 70
     8
 71
     3
 72
    44
 73
    40
 74
     0
 42
0.0000000001
 43
0.0000000001
 40
0.0
 40
0.0
 40
0.0
 40
0.0
 40
1.0
 40
1.0
 40
1.0
 40
2.0
 40
2.0
 40
2.0
 40
3.0
 40
3.0
 40
3.0
 40
4.0
 40
4.0
 40
4.0
 40
5.0
 40
5.0
 40
5.0
 40
6.0
 40
6.0
 40
6.0
 40
7.0
 40
7.0
 40
7.0
 40
8.0
 40
8.0
 40
8.0
 40
9.0
 40
9.0
 40
9.0
 40
10.0
 40
10.0
 40
10.0
 40
11.0
 40
11.0
 40
11.0
 40
12.0
 40
12.0
 40
12.0
 40
13.0
 40
13.0
 40
13.0
 40
13.0
 10
-331.1703572773412
 20
-328.5376135707069
 30
0.0
 10
-331.1703572773412
 20
-328.5376135707069
 30
0.0
 10
-343.8460777130975
 20
-328.976863534847
 30
0.0
 10
-354.7854688788412
 20
-328.976863534847
 30
0.0
 10
-365.7286496521186
 20
-328.976863534847
 30
0.0
 10
-379.2928607996532
 20
-328.1055983118584
 30
0.0
 10
-384.1022172697678
 20
-324.2422656860803
 30
0.0
 10
-388.9196697196135
 20
-320.3713538452345
 30
0.0
 10
-391.9766772151408
 20
-314.3341645341824
 30
0.0
 10
-384.5383666459257
 20
-306.1682493184858
 30
0.0
 10
-377.1081520564418
 20
-297.9947548877217
 30
0.0
 10
-358.2905113377914
 20
-285.9651625364711
 30
0.0
 10
-343.4219861790925
 20
-281.2309091974802
 30
0.0
 10
-328.537441315819
 20
-276.4887321336459
 30
0.0
 10
-242.7956760607806
 20
-257.9902797222706
 30
0.0
 10
-187.2269382444101
 20
-247.688059386862
 30
0.0
 10
-131.6740478777263
 20
-237.3479429761157
 30
0.0
 10
-60.3567346803856
 20
-222.2887316565136
 30
0.0
 10
-23.60167572024394
 20
-215.8422647318157
 30
0.0
 10
13.1375357902111
 20
-209.3806393769828
 30
0.0
 10
70.01472173505539
 20
-200.3510381533652
 30
0.0
 10
108.9505275759868
 20
-200.3510381533652
 30
0.0
 10
147.8859889071424
 20
-200.3510381533652
 30
0.0
 10
222.2646159722079
 20
-203.79751395043
 30
0.0
 10
260.3239889435138
 20
-209.3806393769828
 30
0.0
 10
298.3916301494389
 20
-214.9709995088272
 30
0.0
 10
357.0130690891392
 20
-220.9857956844525
 30
0.0
 10
387.6386101183155
 20
-225.3035367045059
 30
0.0
 10
418.26346212794
 20
-229.5985400793567
 30
0.0
 10
441.4427688630579
 20
-231.7424244141363
 30
0.0
 10
459.8202983431287
 20
-233.9090463941184
 30
0.0
 10
478.1978278231995
 20
-236.0525862191222
 30
0.0
 10
505.3300397258026
 20
-244.6732543388697
 30
0.0
 10
514.5167374071833
 20
-249.3775353273664
 30
0.0
 10
523.6955113637206
 20
-254.1193678814248
 30
0.0
 10
545.5780833027417
 20
-272.1861495437275
 30
0.0
 10
549.071067919539
 20
-280.7913147235643
 30
0.0
 10
552.5761103784893
 20
-289.4044036282443
 30
0.0
 10
556.9534515897553
 20
-310.4632526933366
 30
0.0
 10
556.9534515897553
 20
-314.765835283255
 30
0.0
  0
SPLINE
  5
81
330
75
100
AcDbEntity
  8
\U+30EC\U+30A4\U+30E4\U+30FC 1
  6
AI-Linetype-7
 62
   250
420
  2234132
370
    13
100
AcDbSpline
210
0.0
220
0.0
230
1.0
 70
     8
 71
     3
 72
    29
 73
    25
 74
     0
 42
0.0000000001
 43
0.0000000001
 40
0.0
 40
0.0
 40
0.0
 40
0.0
 40
1.0
 40
1.0
 40
1.0
 40
2.0
 40
2.0
 40
2.0
 40
3.0
 40
3.0
 40
3.0
 40
4.0
 40
4.0
 40
4.0
 40
5.0
 40
5.0
 40
5.0
 40
6.0
 40
6.0
 40
6.0
 40
7.0
 40
7.0
 40
7.0
 40
8.0
 40
8.0
 40
8.0
 40
8.0
 10
305.3855231078769
 20
-428.7716993092748
 30
0.0
 10
291.3894689563818
 20
-426.1889095201309
 30
0.0
 10
251.5693065209816
 20
-410.7052621567479
 30
0.0
 10
221.8284665960499
 20
-399.9482889172883
 30
0.0
 10
192.0755688289654
 20
-389.1840809725371
 30
0.0
 10
146.1417359122864
 20
-370.6932077762293
 30
0.0
 10
121.1981946153164
 20
-366.814716720316
 30
0.0
 10
96.26257704318971
 20
-362.9665425246728
 30
0.0
 10
21.01991946042745
 20
-366.3906251863109
 30
0.0
 10
-26.67056880303621
 20
-368.5345095210905
 30
0.0
 10
-74.35278883188076
 20
-370.6932077762293
 30
0.0
 10
-167.545094753175
 20
-378.0181746292074
 30
0.0
 10
-199.482529008583
 20
-380.1696381790545
 30
0.0
 10
-231.4203077737669
 20
-382.3059432987665
 30
0.0
 10
-271.2282401121263
 20
-389.6081725065421
 30
0.0
 10
-299.6687278883153
 20
-387.4646326815384
 30
0.0
 10
-328.1014641945489
 20
-385.3207483467588
 30
0.0
 10
-338.6045337292467
 20
-381.0333241869755
 30
0.0
 10
-342.5457255643549
 20
-365.1104268594523
 30
0.0
 10
-346.4789936746197
 20
-349.1875295319292
 30
0.0
 10
-337.7203493896658
 20
-334.5596444516239
 30
0.0
 10
-325.9167554513375
 20
-328.1055983118584
 30
0.0
 10
-314.1052377881659
 20
-321.6742898172956
 30
0.0
 10
-301.4172872553688
 20
-321.6742898172956
 30
0.0
 10
-291.8023639226735
 20
-321.227460638088
 30
0.0
  0
SPLINE
  5
83
330
75
100
AcDbEntity
  8
\U+30EC\U+30A4\U+30E4\U+30FC 1
 62
   250
420
  2234132
370
    13
100
AcDbSpline
210
0.0
220
0.0
230
1.0
 70
     8
 71
     3
 72
    20
 73
    16
 74
     0
 42
0.0000000001
 43
0.0000000001
 40
0.0
 40
0.0
 40
0.0
 40
0.0
 40
1.0
 40
1.0
 40
1.0
 40
2.0
 40
2.0
 40
2.0
 40
3.0
 40
3.0
 40
3.0
 40
4.0
 40
4.0
 40
4.0
 40
5.0
 40
5.0
 40
5.0
 40
5.0
 10
727.5767411896691
 20
-424.9538419739017
 30
0.0
 10
727.5767411896691
 20
-424.9538419739017
 30
0.0
 10
788.8195550134025
 20
-399.8800759816807
 30
0.0
 10
817.2519468098603
 20
-388.1312590977039
 30
0.0
 10
845.6926068409372
 20
-376.3669392738164
 30
0.0
 10
916.5658469372767
 20
-349.3463485385712
 30
0.0
 10
927.9453493415999
 20
-343.0742035604262
 30
0.0
 10
939.3207176286136
 20
-336.7944793672136
 30
0.0
 10
954.6293540258921
 20
-330.1433736356928
 30
0.0
 10
956.8259483563685
 20
-318.773172995316
 30
0.0
 10
958.998771512315
 20
-307.4257100001419
 30
0.0
 10
960.7592164666333
 20
-293.3207907594951
 30
0.0
 10
958.126472759999
 20
-283.1171002199642
 30
0.0
 10
955.5057868955176
 20
-272.9282236007925
 30
0.0
 10
948.0674763263025
 20
-258.4522673316133
 30
0.0
 10
948.0674763263025
 20
-258.4522673316133
 30
0.0
  0
SPLINE
  5
84
330
75
100
AcDbEntity
  8
\U+30EC\U+30A4\U+30E4\U+30FC 1
 62
   250
420
  2234132
370
    13
100
AcDbSpline
210
0.0
220
0.0
230
1.0
 70
    11
 71
     3
 72
    29
 73
    25
 74
     0
 42
0.0000000001
 43
0.0000000001
 40
0.0
 40
0.0
 40
0.0
 40
0.0
 40
1.0
 40
1.0
 40
1.0
 40
2.0
 40
2.0
 40
2.0
 40
3.0
 40
3.0
 40
3.0
 40
4.0
 40
4.0
 40
4.0
 40
5.0
 40
5.0
 40
5.0
 40
6.0
 40
6.0
 40
6.0
 40
7.0
 40
7.0
 40
7.0
 40
8.0
 40
8.0
 40
8.0
 40
8.0
 10
687.3166397705772
 20
-401.8424036646157
 30
0.0
 10
685.2840320933798
 20
-401.0996405879991
 30
0.0
 10
679.8824633186717
 20
-397.7289569416094
 30
0.0
 10
678.5740151901979
 20
-395.9636888504298
 30
0.0
 10
677.2497196120373
 20
-394.1911860539586
 30
0.0
 10
677.9139344597723
 20
-390.8732124032657
 30
0.0
 10
680.3186126948297
 20
-388.8888360946797
 30
0.0
 10
682.5672280014512
 20
-387.0780927130951
 30
0.0
 10
686.2283333888371
 20
-385.396540497434
 30
0.0
 10
687.7527891467352
 20
-384.9951866086314
 30
0.0
 10
689.2893027467861
 20
-384.6086466401881
 30
0.0
 10
695.6272490921082
 20
-384.6086466401881
 30
0.0
 10
698.2599927987426
 20
-385.7675775259664
 30
0.0
 10
700.8768890556902
 20
-386.9492460569473
 30
0.0
 10
703.0293861348647
 20
-389.3962989944275
 30
0.0
 10
703.7339086263679
 20
-391.2521731566414
 30
0.0
 10
704.6058628689079
 20
-393.5927725734006
 30
0.0
 10
705.2580198744901
 20
-396.3578080339407
 30
0.0
 10
703.7339086263679
 20
-397.9260165333648
 30
0.0
 10
702.1973950263169
 20
-399.4787220928782
 30
0.0
 10
699.5722305347501
 20
-400.660390623859
 30
0.0
 10
696.7355370408445
 20
-401.6453440728603
 30
0.0
 10
693.8826515874764
 20
-402.6299530120857
 30
0.0
 10
690.6098087174128
 20
-403.0240721955965
 30
0.0
 10
687.3166397705772
 20
-401.8424036646157
 30
0.0
  0
SPLINE
  5
85
330
75
100
AcDbEntity
  8
\U+30EC\U+30A4\U+30E4\U+30FC 1
 62
   250
420
  2234132
370
    13
100
AcDbSpline
210
0.0
220
0.0
230
1.0
 70
    11
 71
     3
 72
    29
 73
    25
 74
     0
 42
0.0000000001
 43
0.0000000001
 40
0.0
 40
0.0
 40
0.0
 40
0.0
 40
1.0
 40
1.0
 40
1.0
 40
2.0
 40
2.0
 40
2.0
 40
3.0
 40
3.0
 40
3.0
 40
4.0
 40
4.0
 40
4.0
 40
5.0
 40
5.0
 40
5.0
 40
6.0
 40
6.0
 40
6.0
 40
7.0
 40
7.0
 40
7.0
 40
8.0
 40
8.0
 40
8.0
 40
8.0
 10
652.1139418601731
 20
-379.5105909779564
 30
0.0
 10
650.1295655515871
 20
-380.1014252434468
 30
0.0
 10
644.4516999366905
 20
-382.0558292015385
 30
0.0
 10
642.2551056062141
 20
-383.4269781092073
 30
0.0
 10
640.0747032352002
 20
-384.798127016876
 30
0.0
 10
638.7541972645735
 20
-387.3433652404581
 30
0.0
 10
640.9428678702066
 20
-389.5020634955969
 30
0.0
 10
643.12740435853
 20
-391.6611062605115
 30
0.0
 10
647.9446845534878
 20
-394.5925399427611
 30
0.0
 10
649.9173475296967
 20
-395.3807783097827
 30
0.0
 10
651.8900105059056
 20
-396.1607484421853
 30
0.0
 10
657.1275926273347
 20
-395.9636888504298
 30
0.0
 10
659.5364049797016
 20
-394.9942383413394
 30
0.0
 10
661.9452173320684
 20
-394.009629402114
 30
0.0
 10
665.2342521615944
 20
-392.032143289044
 30
0.0
 10
666.546489897602
 20
-390.282722647551
 30
0.0
 10
667.8587276336096
 20
-388.5174545563714
 30
0.0
 10
670.0436086317089
 20
-386.7449517599002
 30
0.0
 10
666.9826392737599
 20
-384.4040078333652
 30
0.0
 10
663.9137461909677
 20
-382.0558292015385
 30
0.0
 10
661.2930603264863
 20
-380.2984848352023
 30
0.0
 10
659.3203973502774
 20
-379.3211106012685
 30
0.0
 10
657.351868491378
 20
-378.3365016620431
 30
0.0
 10
653.4144662638037
 20
-379.1243955192889
 30
0.0
 10
652.1139418601731
 20
-379.5105909779564
 30
0.0
  0
POLYLINE
  5
86
330
75
100
AcDbEntity
  8
\U+30EC\U+30A4\U+30E4\U+30FC 1
 62
   250
420
  2234132
370
    13
100
AcDb2dPolyline
 66
     1
 10
0.0
 20
0.0
 30
0.0
  0
VERTEX
  5
87
330
86
100
AcDbEntity
  8
\U+30EC\U+30A4\U+30E4\U+30FC 1
 62
   250
420
  2234132
370
    13
100
AcDbVertex
100
AcDb2dVertex
 10
654.0748915040049
 20
-416.144037987242
 30
0.0
  0
VERTEX
  5
88
330
86
100
AcDbEntity
  8
\U+30EC\U+30A4\U+30E4\U+30FC 1
 62
   250
420
  2234132
370
    13
100
AcDbVertex
100
AcDb2dVertex
 10
681.1947010546793
 20
-416.7348722527325
 30
0.0
  0
SEQEND
  5
89
330
86
100
AcDbEntity
  8
\U+30EC\U+30A4\U+30E4\U+30FC 1
370
    13
  0
POLYLINE
  5
8A
330
75
100
AcDbEntity
  8
\U+30EC\U+30A4\U+30E4\U+30FC 1
 62
   250
420
  2234132
370
    13
100
AcDb2dPolyline
 66
     1
 10
0.0
 20
0.0
 30
0.0
  0
VERTEX
  5
8B
330
8A
100
AcDbEntity
  8
\U+30EC\U+30A4\U+30E4\U+30FC 1
 62
   250
420
  2234132
370
    13
100
AcDbVertex
100
AcDb2dVertex
 10
666.1103405214441
 20
-362.8452750835925
 30
0.0
  0
VERTEX
  5
8C
330
8A
100
AcDbEntity
  8
\U+30EC\U+30A4\U+30E4\U+30FC 1
 62
   250
420
  2234132
370
    13
100
AcDbVertex
100
AcDb2dVertex
 10
689.9493834772115
 20
-363.0650723205505
 30
0.0
  0
SEQEND
  5
8D
330
8A
100
AcDbEntity
  8
\U+30EC\U+30A4\U+30E4\U+30FC 1
370
    13
  0
SPLINE
  5
8E
330
75
100
AcDbEntity
  8
\U+30EC\U+30A4\U+30E4\U+30FC 1
 62
   250
420
  2234132
370
    13
100
AcDbSpline
210
0.0
220
0.0
230
1.0
 70
    11
 71
     3
 72
    29
 73
    25
 74
     0
 42
0.0000000001
 43
0.0000000001
 40
0.0
 40
0.0
 40
0.0
 40
0.0
 40
1.0
 40
1.0
 40
1.0
 40
2.0
 40
2.0
 40
2.0
 40
3.0
 40
3.0
 40
3.0
 40
4.0
 40
4.0
 40
4.0
 40
5.0
 40
5.0
 40
5.0
 40
6.0
 40
6.0
 40
6.0
 40
7.0
 40
7.0
 40
7.0
 40
8.0
 40
8.0
 40
8.0
 40
8.0
 10
680.7588961882972
 20
-377.7380881814851
 30
0.0
 10
679.1620933774819
 20
-378.8439645617908
 30
0.0
 10
674.8529651018234
 20
-380.8741606705577
 30
0.0
 10
672.0080033732987
 20
-377.3594719378851
 30
0.0
 10
669.1671757620835
 20
-373.8368594803693
 30
0.0
 10
666.3222140335587
 20
-368.1403903375797
 30
0.0
 10
665.0141104148606
 20
-364.8148374718193
 30
0.0
 10
663.7015281690773
 20
-361.4892846060588
 30
0.0
 10
664.3498955671256
 20
-358.9288879523417
 30
0.0
 10
666.3222140335587
 20
-355.9974542700921
 30
0.0
 10
668.2948770097676
 20
-353.04328294264
 30
0.0
 10
672.8803021256145
 20
-349.1268958113891
 30
0.0
 10
675.2891144779813
 20
-347.7709053338554
 30
0.0
 10
677.6979268303483
 20
-346.4073356412541
 30
0.0
 10
683.6035134070461
 20
-346.9905906916771
 30
0.0
 10
685.3601687538307
 20
-349.3463485385712
 30
0.0
 10
687.1047662584626
 20
-351.6948716801737
 30
0.0
 10
689.5015207686765
 20
-357.1715435860054
 30
0.0
 10
690.161601499102
 20
-358.7469867907213
 30
0.0
 10
690.8216822295275
 20
-360.322774505213
 30
0.0
 10
691.9103331210433
 20
-364.4286420131517
 30
0.0
 10
690.161601499102
 20
-367.7614295842039
 30
0.0
 10
688.4128698771607
 20
-371.0949061748076
 30
0.0
 10
683.6035134070461
 20
-375.7761050083259
 30
0.0
 10
680.7588961882972
 20
-377.7380881814851
 30
0.0
  0
SPLINE
  5
8F
330
75
100
AcDbEntity
  8
\U+30EC\U+30A4\U+30E4\U+30FC 1
 62
   250
420
  2234132
370
    13
100
AcDbSpline
210
0.0
220
0.0
230
1.0
 70
    11
 71
     3
 72
    29
 73
    25
 74
     0
 42
0.0000000001
 43
0.0000000001
 40
0.0
 40
0.0
 40
0.0
 40
0.0
 40
1.0
 40
1.0
 40
1.0
 40
2.0
 40
2.0
 40
2.0
 40
3.0
 40
3.0
 40
3.0
 40
4.0
 40
4.0
 40
4.0
 40
5.0
 40
5.0
 40
5.0
 40
6.0
 40
6.0
 40
6.0
 40
7.0
 40
7.0
 40
7.0
 40
8.0
 40
8.0
 40
8.0
 40
8.0
 10
660.196485710127
 20
-430.6427319016238
 30
0.0
 10
661.688902058876
 20
-433.1197571895983
 30
0.0
 10
665.6621333031333
 20
-434.3620594411192
 30
0.0
 10
668.7310263859255
 20
-431.4230465438021
 30
0.0
 10
671.7840720190312
 20
-428.4916128615525
 30
0.0
 10
678.1340762065062
 20
-421.6282891081412
 30
0.0
 10
679.2344404303991
 20
-419.870944741805
 30
0.0
 10
680.3186126948297
 20
-418.0908627302662
 30
0.0
 10
680.9828275425647
 20
-413.394160956837
 30
0.0
 10
679.4463139425137
 20
-410.6522076512753
 30
0.0
 10
677.9139344597723
 20
-407.9099098359378
 30
0.0
 10
674.8529651018234
 20
-402.0315395315278
 30
0.0
 10
672.6605048886566
 20
-400.660390623859
 30
0.0
 10
670.4797580078668
 20
-399.3044001463253
 30
0.0
 10
667.6347962793421
 20
-397.7289569416094
 30
0.0
 10
663.7015281690773
 20
-401.2436456742819
 30
0.0
 10
659.7603363339691
 20
-404.7738373468653
 30
0.0
 10
655.6031368694368
 20
-410.8640811633899
 30
0.0
 10
654.2988228582724
 20
-413.0079654981695
 30
0.0
 10
652.986240612489
 20
-415.1590845382408
 30
0.0
 10
653.1984586343794
 20
-417.5076076798433
 30
0.0
 10
654.2988228582724
 20
-420.2571402004725
 30
0.0
 10
655.3829951227029
 20
-422.9918588007425
 30
0.0
 10
658.6603166198519
 20
-428.0747560328392
 30
0.0
 10
660.196485710127
 20
-430.6427319016238
 30
0.0
  0
SPLINE
  5
90
330
75
100
AcDbEntity
  8
\U+30EC\U+30A4\U+30E4\U+30FC 1
 62
   250
420
  2234132
370
    13
100
AcDbSpline
210
0.0
220
0.0
230
1.0
 70
    11
 71
     3
 72
    29
 73
    25
 74
     0
 42
0.0000000001
 43
0.0000000001
 40
0.0
 40
0.0
 40
0.0
 40
0.0
 40
1.0
 40
1.0
 40
1.0
 40
2.0
 40
2.0
 40
2.0
 40
3.0
 40
3.0
 40
3.0
 40
4.0
 40
4.0
 40
4.0
 40
5.0
 40
5.0
 40
5.0
 40
6.0
 40
6.0
 40
6.0
 40
7.0
 40
7.0
 40
7.0
 40
8.0
 40
8.0
 40
8.0
 40
8.0
 10
668.2948770097676
 20
-345.4378851321637
 30
0.0
 10
672.3001476631738
 20
-342.5591614456109
 30
0.0
 10
681.6308504308373
 20
-337.370155202569
 30
0.0
 10
687.1047662584626
 20
-343.6650378259166
 30
0.0
 10
692.5704138514689
 20
-349.9220243739267
 30
0.0
 10
707.2265487333894
 20
-375.3971442549501
 30
0.0
 10
708.7513490010633
 20
-380.8741606705577
 30
0.0
 10
710.2878626011142
 20
-386.3587563012327
 30
0.0
 10
709.8596369497996
 20
-399.8800759816807
 30
0.0
 10
705.9184451146914
 20
-405.5768896342461
 30
0.0
 10
701.9731191622736
 20
-411.2275389768549
 30
0.0
 10
675.0651831237138
 20
-435.7407875638555
 30
0.0
 10
672.0080033732987
 20
-437.5136348701026
 30
0.0
 10
668.9553022499688
 20
-439.2558208063038
 30
0.0
 10
662.6052980624938
 20
-441.2102247643955
 30
0.0
 10
657.9998913796506
 20
-437.1043572564568
 30
0.0
 10
653.4144662638037
 20
-432.9912550432263
 30
0.0
 10
637.4536728609429
 20
-405.3570923972882
 30
0.0
 10
635.481009884734
 20
-398.8878878273877
 30
0.0
 10
633.5124810258347
 20
-392.4338416876223
 30
0.0
 10
632.8603240202526
 20
-384.9951866086314
 30
0.0
 10
636.1335114000921
 20
-378.919756712466
 30
0.0
 10
639.4142779949989
 20
-372.8519060313681
 30
0.0
 10
661.7292097026442
 20
-350.1342423958171
 30
0.0
 10
668.2948770097676
 20
-345.4378851321637
 30
0.0
  0
SPLINE
  5
91
330
75
100
AcDbEntity
  8
\U+30EC\U+30A4\U+30E4\U+30FC 1
 62
   250
420
  2234132
370
    13
100
AcDbSpline
210
0.0
220
0.0
230
1.0
 70
    11
 71
     3
 72
    41
 73
    37
 74
     0
 42
0.0000000001
 43
0.0000000001
 40
0.0
 40
0.0
 40
0.0
 40
0.0
 40
1.0
 40
1.0
 40
1.0
 40
2.0
 40
2.0
 40
2.0
 40
3.0
 40
3.0
 40
3.0
 40
4.0
 40
4.0
 40
4.0
 40
5.0
 40
5.0
 40
5.0
 40
6.0
 40
6.0
 40
6.0
 40
7.0
 40
7.0
 40
7.0
 40
8.0
 40
8.0
 40
8.0
 40
9.0
 40
9.0
 40
9.0
 40
10.0
 40
10.0
 40
10.0
 40
11.0
 40
11.0
 40
11.0
 40
12.0
 40
12.0
 40
12.0
 40
12.0
 10
652.1139418601731
 20
-444.9219730888234
 30
0.0
 10
656.6273644328787
 20
-447.8764889260514
 30
0.0
 10
666.3222140335587
 20
-452.3682073828818
 30
0.0
 10
674.8529651018234
 20
-446.7172135304972
 30
0.0
 10
683.3795820527786
 20
-441.0283236027751
 30
0.0
 10
693.4427126037847
 20
-432.5899011544237
 30
0.0
 10
699.136425668368
 20
-427.1280431689513
 30
0.0
 10
704.8180808907985
 20
-421.6282891081412
 30
0.0
 10
717.729962777863
 20
-407.7204294592499
 30
0.0
 10
719.254418535761
 20
-402.0315395315278
 30
0.0
 10
720.7867980185024
 20
-396.3578080339407
 30
0.0
 10
719.4783498900285
 20
-383.2374977325194
 30
0.0
 10
716.8576640255471
 20
-376.7607139475514
 30
0.0
 10
714.2290544362223
 20
-370.306667807786
 30
0.0
 10
710.5117939553817
 20
-363.8302285325938
 30
0.0
 10
704.8180808907985
 20
-354.6187261473558
 30
0.0
 10
699.136425668368
 20
-345.4378851321637
 30
0.0
 10
692.5704138514689
 20
-336.7944793672136
 30
0.0
 10
689.2893027467861
 20
-334.2568203586991
 30
0.0
 10
686.012325759413
 20
-331.7040029200494
 30
0.0
 10
674.6290337475559
 20
-329.5525393702024
 30
0.0
 10
668.7310263859255
 20
-333.863045684964
 30
0.0
 10
662.8295739265371
 20
-338.1656282748824
 30
0.0
 10
649.9173475296967
 20
-346.9905906916771
 30
0.0
 10
641.8189562300562
 20
-355.2095604128463
 30
0.0
 10
637.2817624828207
 20
-359.8304700356003
 30
0.0
 10
627.6068944491368
 20
-373.2460252148789
 30
0.0
 10
624.9741507425025
 20
-379.5105909779564
 30
0.0
 10
623.8737865186096
 20
-382.1240421371461
 30
0.0
 10
621.6971737551294
 20
-391.055113564886
 30
0.0
 10
622.7971934692465
 20
-395.9636888504298
 30
0.0
 10
623.8817102434529
 20
-400.8498710005469
 30
0.0
 10
631.5398180496259
 20
-417.7043227618229
 30
0.0
 10
634.6087111324182
 20
-423.1889183924979
 30
0.0
 10
637.6658908828334
 20
-428.6886724533079
 30
0.0
 10
647.2846038230624
 20
-441.8010590298859
 30
0.0
 10
652.1139418601731
 20
-444.9219730888234
 30
0.0
  0
SPLINE
  5
92
330
75
100
AcDbEntity
  8
\U+30EC\U+30A4\U+30E4\U+30FC 1
 62
   250
420
  2234132
370
    13
100
AcDbSpline
210
0.0
220
0.0
230
1.0
 70
     8
 71
     3
 72
    20
 73
    16
 74
     0
 42
0.0000000001
 43
0.0000000001
 40
0.0
 40
0.0
 40
0.0
 40
0.0
 40
1.0
 40
1.0
 40
1.0
 40
2.0
 40
2.0
 40
2.0
 40
3.0
 40
3.0
 40
3.0
 40
4.0
 40
4.0
 40
4.0
 40
5.0
 40
5.0
 40
5.0
 40
5.0
 10
621.112885175379
 20
-481.6312122487842
 30
0.0
 10
621.112885175379
 20
-481.6312122487842
 30
0.0
 10
596.0332625169696
 20
-483.7220420780911
 30
0.0
 10
583.1975172903559
 20
-481.6312122487842
 30
0.0
 10
570.3576379464326
 20
-479.5403824194772
 30
0.0
 10
556.3612392851618
 20
-474.3210593161652
 30
0.0
 10
548.2066928920664
 20
-461.8070862201452
 30
0.0
 10
540.0325094417507
 20
-449.2472933239443
 30
0.0
 10
544.6895925909633
 20
-427.3099443305717
 30
0.0
 10
549.3673463267237
 20
-416.8561396938127
 30
0.0
 10
554.0326977105555
 20
-406.4023350570538
 30
0.0
 10
605.9523879816928
 20
-289.3892451981092
 30
0.0
 10
623.445560867295
 20
-256.9905123529101
 30
0.0
 10
640.9428678702066
 20
-224.6141726431377
 30
0.0
 10
694.6030215286662
 20
-135.8260796956217
 30
0.0
 10
716.7736036402529
 20
-116.4942581365955
 30
0.0
  0
SPLINE
  5
93
330
75
100
AcDbEntity
  8
\U+30EC\U+30A4\U+30E4\U+30FC 1
 62
   250
420
  2234132
370
    13
100
AcDbSpline
210
0.0
220
0.0
230
1.0
 70
     8
 71
     3
 72
    59
 73
    55
 74
     0
 42
0.0000000001
 43
0.0000000001
 40
0.0
 40
0.0
 40
0.0
 40
0.0
 40
1.0
 40
1.0
 40
1.0
 40
2.0
 40
2.0
 40
2.0
 40
3.0
 40
3.0
 40
3.0
 40
4.0
 40
4.0
 40
4.0
 40
5.0
 40
5.0
 40
5.0
 40
6.0
 40
6.0
 40
6.0
 40
7.0
 40
7.0
 40
7.0
 40
8.0
 40
8.0
 40
8.0
 40
9.0
 40
9.0
 40
9.0
 40
10.0
 40
10.0
 40
10.0
 40
11.0
 40
11.0
 40
11.0
 40
12.0
 40
12.0
 40
12.0
 40
13.0
 40
13.0
 40
13.0
 40
14.0
 40
14.0
 40
14.0
 40
15.0
 40
15.0
 40
15.0
 40
16.0
 40
16.0
 40
16.0
 40
17.0
 40
17.0
 40
17.0
 40
18.0
 40
18.0
 40
18.0
 40
18.0
 10
717.3616818275369
 20
-147.3023893469437
 30
0.0
 10
729.0333285217354
 20
-149.3932191762507
 30
0.0
 10
764.6080969899994
 20
-164.0283389618477
 30
0.0
 10
775.6954551044474
 20
-176.0272699430525
 30
0.0
 10
786.7745449842764
 20
-188.0565177845273
 30
0.0
 10
781.5331732553135
 20
-199.017785321034
 30
0.0
 10
778.6162089836473
 20
-217.8269855501774
 30
0.0
 10
775.6954551044474
 20
-236.6434204846126
 30
0.0
 10
757.6059357969422
 20
-298.274841335444
 30
0.0
 10
745.9542706697399
 20
-348.9525738648363
 30
0.0
 10
734.2747002506982
 20
-399.622727179161
 30
0.0
 10
713.2764849061459
 20
-472.7452716016736
 30
0.0
 10
708.6111335223143
 20
-480.0705829644276
 30
0.0
 10
703.9457821384825
 20
-487.388315112114
 30
0.0
 10
691.6981150991529
 20
-490.0017662713037
 30
0.0
 10
683.5235871390614
 20
-490.0017662713037
 30
0.0
 10
675.357327413589
 20
-490.0017662713037
 30
0.0
 10
667.1986469031841
 20
-488.425978556812
 30
0.0
 10
645.6161429788816
 20
-485.2899060677395
 30
0.0
 10
645.6161429788816
 20
-485.2899060677395
 30
0.0
 10
583.78559547764
 20
-473.7984379862825
 30
0.0
 10
573.2825259429421
 20
-471.1925660421603
 30
0.0
 10
562.7753222909348
 20
-468.571535667903
 30
0.0
 10
559.8583580192686
 20
-465.9580845087133
 30
0.0
 10
563.3634004782189
 20
-458.1180755409198
 30
0.0
 10
566.8605192123258
 20
-450.2928804934857
 30
0.0
 10
618.1917867864033
 20
-336.9081675932264
 30
0.0
 10
642.1111005199314
 20
-288.8590446531589
 30
0.0
 10
666.0383379783027
 20
-240.8023424980239
 30
0.0
 10
680.0226787974208
 20
-210.5016741874235
 30
0.0
 10
692.8542899067248
 20
-187.526317239577
 30
0.0
 10
705.6941692506481
 20
-164.543381076663
 30
0.0
 10
718.5302589870375
 20
-152.0066703354404
 30
0.0
 10
719.6905679119191
 20
-139.4620358693745
 30
0.0
 10
720.867068796263
 20
-126.9177459130844
 30
0.0
 10
723.1956103708692
 20
-112.8128266724377
 30
0.0
 10
707.4508245974328
 20
-114.9112357168121
 30
0.0
 10
691.6981150991529
 20
-117.0093002514108
 30
0.0
 10
657.8638100182112
 20
-153.051912995206
 30
0.0
 10
633.3605522147086
 20
-187.526317239577
 30
0.0
 10
608.8610840187399
 20
-222.0158799140831
 30
0.0
 10
577.359454629714
 20
-287.3059945838698
 30
0.0
 10
556.3612392851618
 20
-336.4007046934786
 30
0.0
 10
535.3668135481432
 20
-385.5026495083792
 30
0.0
 10
521.3587015544952
 20
-416.8561396938127
 30
0.0
 10
521.3587015544952
 20
-431.4761010492747
 30
0.0
 10
521.3587015544952
 20
-446.1036416198043
 30
0.0
 10
525.4480325931958
 20
-465.9580845087133
 30
0.0
 10
538.2879119371189
 20
-480.5704666491077
 30
0.0
 10
551.1115993215797
 20
-495.2059309444806
 30
0.0
 10
565.692286562601
 20
-496.2435943891787
 30
0.0
 10
581.4487856684145
 20
-496.773794934129
 30
0.0
 10
597.1935714418511
 20
-497.2964162640118
 30
0.0
 10
619.5763715753282
 20
-494.3195072913571
 30
0.0
 10
631.8278282221916
 20
-483.3582397548504
 30
0.0
  0
SPLINE
  5
94
330
75
100
AcDbEntity
  8
\U+30EC\U+30A4\U+30E4\U+30FC 1
 62
   250
420
  2234132
370
    13
100
AcDbSpline
210
0.0
220
0.0
230
1.0
 70
     8
 71
     3
 72
    14
 73
    10
 74
     0
 42
0.0000000001
 43
0.0000000001
 40
0.0
 40
0.0
 40
0.0
 40
0.0
 40
1.0
 40
1.0
 40
1.0
 40
2.0
 40
2.0
 40
2.0
 40
3.0
 40
3.0
 40
3.0
 40
3.0
 10
662.1653590788021
 20
-488.3350279760018
 30
0.0
 10
662.1653590788021
 20
-488.3350279760018
 30
0.0
 10
627.8308258034043
 20
-642.3226295222702
 30
0.0
 10
623.445560867295
 20
-661.1769605320429
 30
0.0
 10
617.0314778615218
 20
-688.7356755370816
 30
0.0
 10
643.2793331696562
 20
-700.6209182922737
 30
0.0
 10
651.4497270124381
 20
-673.0701270120783
 30
0.0
 10
658.1401068583997
 20
-650.5037031681018
 30
0.0
 10
689.0012925742205
 20
-490.5395460313215
 30
0.0
 10
689.0012925742205
 20
-490.5395460313215
 30
0.0
  0
POLYLINE
  5
95
330
75
100
AcDbEntity
  8
\U+30EC\U+30A4\U+30E4\U+30FC 1
 62
   250
420
  2234132
370
    13
100
AcDb2dPolyline
 66
     1
 10
0.0
 20
0.0
 30
0.0
  0
VERTEX
  5
96
330
95
100
AcDbEntity
  8
\U+30EC\U+30A4\U+30E4\U+30FC 1
 62
   250
420
  2234132
370
    13
100
AcDbVertex
100
AcDb2dVertex
 10
528.3567286302427
 20
-676.1986202860833
 30
0.0
  0
VERTEX
  5
97
330
95
100
AcDbEntity
  8
\U+30EC\U+30A4\U+30E4\U+30FC 1
 62
   250
420
  2234132
370
    13
100
AcDbVertex
100
AcDb2dVertex
 10
607.1126969065743
 20
-675.5774691603227
 30
0.0
  0
VERTEX
  5
98
330
95
100
AcDbEntity
  8
\U+30EC\U+30A4\U+30E4\U+30FC 1
 62
   250
420
  2234132
370
    13
100
AcDbVertex
100
AcDb2dVertex
 10
607.0086549542839
 20
-666.176486398397
 30
0.0
  0
SEQEND
  5
99
330
95
100
AcDbEntity
  8
\U+30EC\U+30A4\U+30E4\U+30FC 1
370
    13
  0
POLYLINE
  5
9A
330
75
100
AcDbEntity
  8
\U+30EC\U+30A4\U+30E4\U+30FC 1
 62
   250
420
  2234132
370
    13
100
AcDb2dPolyline
 66
     1
 10
0.0
 20
0.0
 30
0.0
  0
VERTEX
  5
9B
330
9A
100
AcDbEntity
  8
\U+30EC\U+30A4\U+30E4\U+30FC 1
 62
   250
420
  2234132
370
    13
100
AcDbVertex
100
AcDb2dVertex
 10
606.6445081212673
 20
-633.005018126087
 30
0.0
  0
VERTEX
  5
9C
330
9A
100
AcDbEntity
  8
\U+30EC\U+30A4\U+30E4\U+30FC 1
 62
   250
420
  2234132
370
    13
100
AcDbVertex
100
AcDb2dVertex
 10
605.9523879816928
 20
-569.1466860845092
 30
0.0
  0
VERTEX
  5
9D
330
9A
100
AcDbEntity
  8
\U+30EC\U+30A4\U+30E4\U+30FC 1
 62
   250
420
  2234132
370
    13
100
AcDbVertex
100
AcDb2dVertex
 10
553.0842622977885
 20
-570.0403444429244
 30
0.0
  0
SEQEND
  5
9E
330
9A
100
AcDbEntity
  8
\U+30EC\U+30A4\U+30E4\U+30FC 1
370
    13
  0
SPLINE
  5
9F
330
75
100
AcDbEntity
  8
\U+30EC\U+30A4\U+30E4\U+30FC 1
 62
   250
420
  2234132
370
    13
100
AcDbSpline
210
0.0
220
0.0
230
1.0
 70
    11
 71
     3
 72
    17
 73
    13
 74
     0
 42
0.0000000001
 43
0.0000000001
 40
0.0
 40
0.0
 40
0.0
 40
0.0
 40
1.0
 40
1.0
 40
1.0
 40
2.0
 40
2.0
 40
2.0
 40
3.0
 40
3.0
 40
3.0
 40
4.0
 40
4.0
 40
4.0
 40
4.0
 10
648.5331072505477
 20
-672.5926364628248
 30
0.0
 10
648.5331072505477
 20
-679.4483810011685
 30
0.0
 10
643.3754513971032
 20
-684.9856866275403
 30
0.0
 10
637.0054656426321
 20
-684.9856866275403
 30
0.0
 10
630.6358243979367
 20
-684.9856866275403
 30
0.0
 10
625.4902263866452
 20
-679.4483810011685
 30
0.0
 10
625.4902263866452
 20
-672.5926364628248
 30
0.0
 10
625.4902263866452
 20
-665.7675532945269
 30
0.0
 10
630.6358243979367
 20
-660.2454060982901
 30
0.0
 10
637.0054656426321
 20
-660.2454060982901
 30
0.0
 10
643.3754513971032
 20
-660.2454060982901
 30
0.0
 10
648.5331072505477
 20
-665.7675532945269
 30
0.0
 10
648.5331072505477
 20
-672.5926364628248
 30
0.0
  0
POLYLINE
  5
A0
330
75
100
AcDbEntity
  8
\U+30EC\U+30A4\U+30E4\U+30FC 1
 62
   250
420
  2234132
370
    13
100
AcDb2dPolyline
 66
     1
 10
0.0
 20
0.0
 30
0.0
  0
VERTEX
  5
A1
330
A0
100
AcDbEntity
  8
\U+30EC\U+30A4\U+30E4\U+30FC 1
 62
   250
420
  2234132
370
    13
100
AcDbVertex
100
AcDb2dVertex
 10
537.1155451700846
 20
-618.6124332226505
 30
0.0
  0
VERTEX
  5
A2
330
A0
100
AcDbEntity
  8
\U+30EC\U+30A4\U+30E4\U+30FC 1
 62
   250
420
  2234132
370
    13
100
AcDbVertex
100
AcDb2dVertex
 10
623.445560867295
 20
-675.5774691603227
 30
0.0
  0
SEQEND
  5
A3
330
A0
100
AcDbEntity
  8
\U+30EC\U+30A4\U+30E4\U+30FC 1
370
    13
  0
SPLINE
  5
A4
330
75
100
AcDbEntity
  8
\U+30EC\U+30A4\U+30E4\U+30FC 1
 62
   250
420
  2234132
370
    13
100
AcDbSpline
210
0.0
220
0.0
230
1.0
 70
     8
 71
     3
 72
    26
 73
    22
 74
     0
 42
0.0000000001
 43
0.0000000001
 40
0.0
 40
0.0
 40
0.0
 40
0.0
 40
1.0
 40
1.0
 40
1.0
 40
2.0
 40
2.0
 40
2.0
 40
3.0
 40
3.0
 40
3.0
 40
4.0
 40
4.0
 40
4.0
 40
5.0
 40
5.0
 40
5.0
 40
6.0
 40
6.0
 40
6.0
 40
7.0
 40
7.0
 40
7.0
 40
7.0
 10
625.7782365592108
 20
-645.5344941620178
 30
0.0
 10
625.7782365592108
 20
-645.5344941620178
 30
0.0
 10
527.4206955694045
 20
-579.4337479897828
 30
0.0
 10
527.4206955694045
 20
-579.4337479897828
 30
0.0
 10
537.3274186821992
 20
-580.0624783306108
 30
0.0
 10
536.5274669828005
 20
-575.4188310626542
 30
0.0
 10
537.699489240059
 20
-562.8972787515667
 30
0.0
 10
538.8597981649406
 20
-550.3681472254116
 30
0.0
 10
543.5413415082347
 20
-520.3324069323984
 30
0.0
 10
530.1133839770274
 20
-507.1897034955504
 30
0.0
 10
516.7054080128163
 20
-494.0242624134997
 30
0.0
 10
500.948564397227
 20
-477.7375627627359
 30
0.0
 10
441.4427688630579
 20
-469.6171228374444
 30
0.0
 10
381.9445525439564
 20
-461.4887591873096
 30
0.0
 10
247.196099427025
 20
-439.5889617594987
 30
0.0
 10
194.7000443009806
 20
-437.0664611811192
 30
0.0
 10
142.204333684712
 20
-434.5742774630097
 30
0.0
 10
79.7894976037201
 20
-435.1726909435676
 30
0.0
 10
45.9593266400879
 20
-439.5889617594987
 30
0.0
 10
12.1212319516124
 20
-443.952522579733
 30
0.0
 10
-371.1264288192929
 20
-534.0966060047828
 30
0.0
 10
-386.2908878754008
 20
-533.4678756639547
 30
0.0
  0
SPLINE
  5
A5
330
75
100
AcDbEntity
  8
\U+30EC\U+30A4\U+30E4\U+30FC 1
 62
   250
420
  2234132
370
    13
100
AcDbSpline
210
0.0
220
0.0
230
1.0
 70
     8
 71
     3
 72
    41
 73
    37
 74
     0
 42
0.0000000001
 43
0.0000000001
 40
0.0
 40
0.0
 40
0.0
 40
0.0
 40
1.0
 40
1.0
 40
1.0
 40
2.0
 40
2.0
 40
2.0
 40
3.0
 40
3.0
 40
3.0
 40
4.0
 40
4.0
 40
4.0
 40
5.0
 40
5.0
 40
5.0
 40
6.0
 40
6.0
 40
6.0
 40
7.0
 40
7.0
 40
7.0
 40
8.0
 40
8.0
 40
8.0
 40
9.0
 40
9.0
 40
9.0
 40
10.0
 40
10.0
 40
10.0
 40
11.0
 40
11.0
 40
11.0
 40
12.0
 40
12.0
 40
12.0
 40
12.0
 10
-313.9610604469952
 20
-545.9894279750423
 30
0.0
 10
-327.9572868533782
 20
-550.3681472254116
 30
0.0
 10
-348.9556744528184
 20
-550.3681472254116
 30
0.0
 10
-365.8728269932893
 20
-548.4967701232868
 30
0.0
 10
-382.7858454164506
 20
-546.6105791008027
 30
0.0
 10
-389.8000644516606
 20
-536.6039481530272
 30
0.0
 10
-384.5464626256569
 20
-527.2033099008772
 30
0.0
 10
-379.2968226620749
 20
-517.8174855690863
 30
0.0
 10
-357.1260682956004
 20
-501.5387096431658
 30
0.0
 10
-327.3731705285158
 20
-493.4027667779634
 30
0.0
 10
-297.6321583486962
 20
-485.2520099924019
 30
0.0
 10
-186.7949229855617
 20
-461.481179972242
 30
0.0
 10
-133.7028659473899
 20
-450.823081038436
 30
0.0
 10
-80.63079047621434
 20
-440.1801405347649
 30
0.0
 10
30.20282753427433
 20
-416.3862283596267
 30
0.0
 10
59.95572530135885
 20
-413.2732380255326
 30
0.0
 10
89.69656522629052
 20
-410.1519794568193
 30
0.0
 10
155.6164437662327
 20
-406.3795974118512
 30
0.0
 10
190.0346929171489
 20
-411.4170193535428
 30
0.0
 10
224.4450183432218
 20
-416.3862283596267
 30
0.0
 10
412.8618933532319
 20
-441.4376012164209
 30
0.0
 10
436.2010526243192
 20
-443.3310269441967
 30
0.0
 10
459.5281540532536
 20
-445.2024040463215
 30
0.0
 10
494.5344813914539
 20
-450.8306602535035
 30
0.0
 10
508.5346696602586
 20
-459.6101473798931
 30
0.0
 10
522.5310683215296
 20
-468.3520829407208
 30
0.0
 10
539.4482208620004
 20
-483.3885566151204
 30
0.0
 10
546.446247937748
 20
-492.16804374151
 30
0.0
 10
553.4442750134956
 20
-500.9172140076295
 30
0.0
 10
556.9493174724458
 20
-511.5756574512114
 30
0.0
 10
556.9493174724458
 20
-519.0749462507424
 30
0.0
 10
556.9493174724458
 20
-526.5893934804084
 30
0.0
 10
558.1096263973272
 20
-554.7537566712969
 30
0.0
 10
556.3612392851618
 20
-562.8972787515667
 30
0.0
 10
554.6207758978395
 20
-571.0480355371282
 30
0.0
 10
542.5770586457812
 20
-584.1528428986387
 30
0.0
 10
530.3293916064516
 20
-581.6379215353267
 30
0.0
  0
SPLINE
  5
A6
330
75
100
AcDbEntity
  8
\U+30EC\U+30A4\U+30E4\U+30FC 1
 62
   250
420
  2234132
370
    13
100
AcDbSpline
210
0.0
220
0.0
230
1.0
 70
     8
 71
     3
 72
    14
 73
    10
 74
     0
 42
0.0000000001
 43
0.0000000001
 40
0.0
 40
0.0
 40
0.0
 40
0.0
 40
1.0
 40
1.0
 40
1.0
 40
2.0
 40
2.0
 40
2.0
 40
3.0
 40
3.0
 40
3.0
 40
3.0
 10
26.70570880016742
 20
-591.0768003725901
 30
0.0
 10
26.70570880016742
 20
-591.0768003725901
 30
0.0
 10
61.6961886886811
 20
-645.5344941620178
 30
0.0
 10
85.6151579124333
 20
-659.919499850387
 30
0.0
 10
109.5427398805804
 20
-674.3351669088017
 30
0.0
 10
122.3705613823508
 20
-677.4560809677392
 30
0.0
 10
150.9510923824009
 20
-677.4560809677392
 30
0.0
 10
179.5395471072944
 20
-677.4560809677392
 30
0.0
 10
379.0358565069093
 20
-675.5774691603227
 30
0.0
 10
379.0358565069093
 20
-675.5774691603227
 30
0.0
  0
SPLINE
  5
A7
330
75
100
AcDbEntity
  8
\U+30EC\U+30A4\U+30E4\U+30FC 1
 62
   250
420
  2234132
370
    13
100
AcDbSpline
210
0.0
220
0.0
230
1.0
 70
    11
 71
     3
 72
    59
 73
    55
 74
     0
 42
0.0000000001
 43
0.0000000001
 40
0.0
 40
0.0
 40
0.0
 40
0.0
 40
1.0
 40
1.0
 40
1.0
 40
2.0
 40
2.0
 40
2.0
 40
3.0
 40
3.0
 40
3.0
 40
4.0
 40
4.0
 40
4.0
 40
5.0
 40
5.0
 40
5.0
 40
6.0
 40
6.0
 40
6.0
 40
7.0
 40
7.0
 40
7.0
 40
8.0
 40
8.0
 40
8.0
 40
9.0
 40
9.0
 40
9.0
 40
10.0
 40
10.0
 40
10.0
 40
11.0
 40
11.0
 40
11.0
 40
12.0
 40
12.0
 40
12.0
 40
13.0
 40
13.0
 40
13.0
 40
14.0
 40
14.0
 40
14.0
 40
15.0
 40
15.0
 40
15.0
 40
16.0
 40
16.0
 40
16.0
 40
17.0
 40
17.0
 40
17.0
 40
18.0
 40
18.0
 40
18.0
 40
18.0
 10
262.9408852004615
 20
-642.3908424578779
 30
0.0
 10
308.9746259521214
 20
-658.2758437100633
 30
0.0
 10
360.9504713167136
 20
-673.7064365679738
 30
0.0
 10
379.0358565069093
 20
-675.5774691603227
 30
0.0
 10
397.1174520895712
 20
-677.4560809677392
 30
0.0
 10
429.198891431262
 20
-678.7059624343278
 30
0.0
 10
454.8628026694219
 20
-678.7059624343278
 30
0.0
 10
480.5384272399587
 20
-678.7059624343278
 30
0.0
 10
514.9487526660316
 20
-679.9710023310513
 30
0.0
 10
525.4480325931958
 20
-676.8273506269113
 30
0.0
 10
535.9511021278935
 20
-673.7064365679738
 30
0.0
 10
546.446247937748
 20
-666.8131404640683
 30
0.0
 10
546.446247937748
 20
-654.3064020733399
 30
0.0
 10
546.446247937748
 20
-641.7769260374091
 30
0.0
 10
539.4482208620004
 20
-624.2406894298325
 30
0.0
 10
534.2065046232617
 20
-612.3551021648647
 30
0.0
 10
528.9530750521459
 20
-600.4622801946051
 30
0.0
 10
523.6993009712544
 20
-581.0398525645445
 30
0.0
 10
520.782681209364
 20
-563.5184298773271
 30
0.0
 10
517.8657169376978
 20
-545.9894279750423
 30
0.0
 10
520.7744129747449
 20
-532.2179941973662
 30
0.0
 10
509.7032468197592
 20
-522.8321698655755
 30
0.0
 10
498.6158887053111
 20
-513.4239523983579
 30
0.0
 10
470.0312235879514
 20
-506.5533939396548
 30
0.0
 10
450.7855294728742
 20
-504.6823613473059
 30
0.0
 10
431.5357012404875
 20
-502.8037495398893
 30
0.0
 10
343.4569539213358
 20
-494.0470000587023
 30
0.0
 10
284.5392365744507
 20
-483.3885566151204
 30
0.0
 10
225.6135955027224
 20
-472.7452716016736
 30
0.0
 10
132.869496799739
 20
-455.85292376506
 30
0.0
 10
107.7819504164862
 20
-455.2241934242321
 30
0.0
 10
82.69853815054294
 20
-454.5878838683365
 30
0.0
 10
-36.2934158605748
 20
-482.7674054893599
 30
0.0
 10
-75.37701639532277
 20
-490.9030038447864
 30
0.0
 10
-114.4530377150032
 20
-499.0389467099888
 30
0.0
 10
-268.4513190643212
 20
-534.7253363456107
 30
0.0
 10
-297.0440801614122
 20
-540.9671644634857
 30
0.0
 10
-325.6246111614624
 20
-547.2393094416308
 30
0.0
 10
-342.5417637019332
 20
-562.2837068408737
 30
0.0
 10
-342.5417637019332
 20
-579.7975503130235
 30
0.0
 10
-342.5417637019332
 20
-597.318628490465
 30
0.0
 10
-333.787081279401
 20
-616.7414006303014
 30
0.0
 10
-313.3769441221328
 20
-615.4612023034429
 30
0.0
 10
-292.9547491227117
 20
-614.2264792669895
 30
0.0
 10
-208.9534472549955
 20
-607.3555762985106
 30
0.0
 10
-134.3030019768269
 20
-600.4622801946051
 30
0.0
 10
-59.62430689704294
 20
-593.5689840906996
 30
0.0
 10
24.37303310825156
 20
-588.5618790092781
 30
0.0
 10
57.03083730484938
 20
-587.9255694533825
 30
0.0
 10
89.69656522629052
 20
-587.304418327622
 30
0.0
 10
121.7900624101342
 20
-589.1830301350385
 30
0.0
 10
138.6951571084522
 20
-594.8264447723556
 30
0.0
 10
155.6164437662327
 20
-600.4622801946051
 30
0.0
 10
246.6118108472747
 20
-636.7546625258525
 30
0.0
 10
262.9408852004615
 20
-642.3908424578779
 30
0.0
  0
POLYLINE
  5
A8
330
75
100
AcDbEntity
  8
\U+30EC\U+30A4\U+30E4\U+30FC 1
 62
   250
420
  2234132
370
    13
100
AcDb2dPolyline
 66
     1
 10
0.0
 20
0.0
 30
0.0
  0
VERTEX
  5
A9
330
A8
100
AcDbEntity
  8
\U+30EC\U+30A4\U+30E4\U+30FC 1
 62
   250
420
  2234132
370
    13
100
AcDbVertex
100
AcDb2dVertex
 10
582.0248060135457
 20
-688.0914422563428
 30
0.0
  0
VERTEX
  5
AA
330
A8
100
AcDbEntity
  8
\U+30EC\U+30A4\U+30E4\U+30FC 1
 62
   250
420
  2234132
370
    13
100
AcDbVertex
100
AcDb2dVertex
 10
582.0248060135457
 20
-676.1986202860833
 30
0.0
  0
SEQEND
  5
AB
330
A8
100
AcDbEntity
  8
\U+30EC\U+30A4\U+30E4\U+30FC 1
370
    13
  0
POLYLINE
  5
AC
330
75
100
AcDbEntity
  8
\U+30EC\U+30A4\U+30E4\U+30FC 1
 62
   250
420
  2234132
370
    13
100
AcDb2dPolyline
 66
     1
 10
0.0
 20
0.0
 30
0.0
  0
VERTEX
  5
AD
330
AC
100
AcDbEntity
  8
\U+30EC\U+30A4\U+30E4\U+30FC 1
 62
   250
420
  2234132
370
    13
100
AcDbVertex
100
AcDb2dVertex
 10
137.5348481835707
 20
-706.8854840553512
 30
0.0
  0
VERTEX
  5
AE
330
AC
100
AcDbEntity
  8
\U+30EC\U+30A4\U+30E4\U+30FC 1
 62
   250
420
  2234132
370
    13
100
AcDbVertex
100
AcDb2dVertex
 10
137.5348481835707
 20
-676.1986202860833
 30
0.0
  0
SEQEND
  5
AF
330
AC
100
AcDbEntity
  8
\U+30EC\U+30A4\U+30E4\U+30FC 1
370
    13
  0
SPLINE
  5
B0
330
75
100
AcDbEntity
  8
\U+30EC\U+30A4\U+30E4\U+30FC 1
 62
   250
420
  2234132
370
    13
100
AcDbSpline
210
0.0
220
0.0
230
1.0
 70
     8
 71
     3
 72
    11
 73
     7
 74
     0
 42
0.0000000001
 43
0.0000000001
 40
0.0
 40
0.0
 40
0.0
 40
0.0
 40
1.0
 40
1.0
 40
1.0
 40
2.0
 40
2.0
 40
2.0
 40
2.0
 10
138.8994514054993
 20
-894.839682436467
 30
0.0
 10
173.802081301185
 20
-875.5233638173517
 30
0.0
 10
249.8567484254988
 20
-836.8294038390292
 30
0.0
 10
313.1159779669671
 20
-811.4300761086809
 30
0.0
 10
389.5310023167638
 20
-780.7507915544804
 30
0.0
 10
505.0258375937746
 20
-757.6011126600811
 30
0.0
 10
600.6986139008013
 20
-754.4571164461652
 30
0.0
  0
SPLINE
  5
B1
330
75
100
AcDbEntity
  8
\U+30EC\U+30A4\U+30E4\U+30FC 1
 62
   250
420
  2234132
370
    13
100
AcDbSpline
210
0.0
220
0.0
230
1.0
 70
     8
 71
     3
 72
     8
 73
     4
 74
     0
 42
0.0000000001
 43
0.0000000001
 40
0.0
 40
0.0
 40
0.0
 40
0.0
 40
1.0
 40
1.0
 40
1.0
 40
1.0
 10
756.4456268720606
 20
-756.957223889118
 30
0.0
 10
756.4456268720606
 20
-756.957223889118
 30
0.0
 10
743.6095371356712
 20
-733.1636562237555
 30
0.0
 10
736.6115100599236
 20
-715.6349988312465
 30
0.0
  0
SPLINE
  5
B2
330
75
100
AcDbEntity
  8
\U+30EC\U+30A4\U+30E4\U+30FC 1
 62
   250
420
  2234132
370
    13
100
AcDbSpline
210
0.0
220
0.0
230
1.0
 70
     8
 71
     3
 72
    11
 73
     7
 74
     0
 42
0.0000000001
 43
0.0000000001
 40
0.0
 40
0.0
 40
0.0
 40
0.0
 40
1.0
 40
1.0
 40
1.0
 40
2.0
 40
2.0
 40
2.0
 40
2.0
 10
720.7189295926706
 20
-894.8927369419397
 30
0.0
 10
722.4511247453737
 20
-875.7655541897363
 30
0.0
 10
729.0212706795825
 20
-852.7447219514847
 30
0.0
 10
736.0234318726395
 20
-830.1934565376433
 30
0.0
 10
744.1938257154216
 20
-803.9156288790148
 30
0.0
 10
757.0216472171919
 20
-766.3351244960655
 30
0.0
 10
765.2003092945929
 20
-760.714447503951
 30
0.0
  0
SPLINE
  5
B3
330
75
100
AcDbEntity
  8
\U+30EC\U+30A4\U+30E4\U+30FC 1
 62
   250
420
  2234132
370
    13
100
AcDbSpline
210
0.0
220
0.0
230
1.0
 70
     8
 71
     3
 72
    47
 73
    43
 74
     0
 42
0.0000000001
 43
0.0000000001
 40
0.0
 40
0.0
 40
0.0
 40
0.0
 40
1.0
 40
1.0
 40
1.0
 40
2.0
 40
2.0
 40
2.0
 40
3.0
 40
3.0
 40
3.0
 40
4.0
 40
4.0
 40
4.0
 40
5.0
 40
5.0
 40
5.0
 40
6.0
 40
6.0
 40
6.0
 40
7.0
 40
7.0
 40
7.0
 40
8.0
 40
8.0
 40
8.0
 40
9.0
 40
9.0
 40
9.0
 40
10.0
 40
10.0
 40
10.0
 40
11.0
 40
11.0
 40
11.0
 40
12.0
 40
12.0
 40
12.0
 40
13.0
 40
13.0
 40
13.0
 40
14.0
 40
14.0
 40
14.0
 40
14.0
 10
-186.0786871616815
 20
-894.415590902462
 30
0.0
 10
-185.8506216901044
 20
-888.9313397815628
 30
0.0
 10
-185.6263458260611
 20
-882.674008723777
 30
0.0
 10
-185.6263458260611
 20
-879.0380525500242
 30
0.0
 10
-185.6263458260611
 20
-871.5387637504932
 30
0.0
 10
-182.1292270919542
 20
-864.0243165208271
 30
0.0
 10
-166.3765175936744
 20
-860.8803203069112
 30
0.0
 10
-150.6317318202379
 20
-857.752171542682
 30
0.0
 10
-103.3736033253984
 20
-842.1245190930163
 30
0.0
 10
-67.20662255254082
 20
-832.7083779009554
 30
0.0
 10
-31.03998628945902
 20
-823.3228980789404
 30
0.0
 10
85.6151579124333
 20
-780.7507915544804
 30
0.0
 10
167.8682449228718
 20
-765.0852430294769
 30
0.0
 10
250.1130636986912
 20
-749.4348529346087
 30
0.0
 10
333.5381729663882
 20
-733.8075449947186
 30
0.0
 10
372.0378294311617
 20
-729.4140118239901
 30
0.0
 10
410.5374858959352
 20
-725.0352925736207
 30
0.0
 10
435.6129744370351
 20
-721.2704897437202
 30
0.0
 10
442.6147911203165
 20
-721.2704897437202
 30
0.0
 10
449.6090285885303
 20
-721.2704897437202
 30
0.0
 10
460.1162322405376
 20
-725.6567882091571
 30
0.0
 10
467.1142593162852
 20
-728.7928606982296
 30
0.0
 10
474.1164205093423
 20
-731.9289331873022
 30
0.0
 10
502.6972960191683
 20
-739.4282219868331
 30
0.0
 10
519.6141040498634
 20
-739.4282219868331
 30
0.0
 10
536.5274669828005
 20
-739.4282219868331
 30
0.0
 10
554.6207758978395
 20
-734.4286961204791
 30
0.0
 10
566.280364749885
 20
-731.2926236314066
 30
0.0
 10
577.9478773267739
 20
-728.156551142334
 30
0.0
 10
587.8628686741877
 20
-720.0206082771317
 30
0.0
 10
590.7794884360779
 20
-718.7783060256107
 30
0.0
 10
593.7043764325874
 20
-717.5284245590223
 30
0.0
 10
602.4390772881235
 20
-713.7560425140542
 30
0.0
 10
608.8610840187399
 20
-713.7560425140542
 30
0.0
 10
615.2872248666658
 20
-713.7560425140542
 30
0.0
 10
711.5280977939804
 20
-715.0210824107777
 30
0.0
 10
722.6075321835851
 20
-715.6349988312465
 30
0.0
 10
733.698679905567
 20
-716.2785430924338
 30
0.0
 10
738.3561075645555
 20
-715.0210824107777
 30
0.0
 10
744.1938257154216
 20
-715.0210824107777
 30
0.0
 10
750.0315438662876
 20
-715.0210824107777
 30
0.0
 10
762.859365368058
 20
-714.4075105000848
 30
0.0
 10
762.859365368058
 20
-708.7640958627677
 30
0.0
  0
SPLINE
  5
B4
330
75
100
AcDbEntity
  8
\U+30EC\U+30A4\U+30E4\U+30FC 1
 62
   250
420
  2234132
370
    13
100
AcDbSpline
210
0.0
220
0.0
230
1.0
 70
     8
 71
     3
 72
    20
 73
    16
 74
     0
 42
0.0000000001
 43
0.0000000001
 40
0.0
 40
0.0
 40
0.0
 40
0.0
 40
1.0
 40
1.0
 40
1.0
 40
2.0
 40
2.0
 40
2.0
 40
3.0
 40
3.0
 40
3.0
 40
4.0
 40
4.0
 40
4.0
 40
5.0
 40
5.0
 40
5.0
 40
5.0
 10
-190.5318205236228
 20
-894.5747544188798
 30
0.0
 10
-190.4277785713323
 20
-889.0901587882048
 30
0.0
 10
-190.2916972098928
 20
-883.2348706387731
 30
0.0
 10
-190.2916972098928
 20
-879.0380525500242
 30
0.0
 10
-190.2916972098928
 20
-872.1599148762537
 30
0.0
 10
-187.3750774480025
 20
-865.2741979874156
 30
0.0
 10
-178.0440301705632
 20
-860.2519344758591
 30
0.0
 10
-168.7091932855903
 20
-855.2524086095051
 30
0.0
 10
-99.88475282591062
 20
-830.2086149677784
 30
0.0
 10
-70.71166501149105
 20
-819.5732536791749
 30
0.0
 10
-41.54684543169058
 20
-808.9227339604363
 30
0.0
 10
-11.20586947732198
 20
-800.771632665099
 30
0.0
 10
-1.298801854751557
 20
-797.6507186061615
 30
0.0
 10
8.616189492662183
 20
-794.5070669020214
 30
0.0
 10
22.0400129065599
 20
-784.5231735994485
 30
0.0
 10
27.86601772504891
 20
-774.5013842215379
 30
0.0
  0
SPLINE
  5
B5
330
75
100
AcDbEntity
  8
\U+30EC\U+30A4\U+30E4\U+30FC 1
 62
   250
420
  2234132
370
    13
100
AcDbSpline
210
0.0
220
0.0
230
1.0
 70
    11
 71
     3
 72
    62
 73
    58
 74
     0
 42
0.0000000001
 43
0.0000000001
 40
0.0
 40
0.0
 40
0.0
 40
0.0
 40
1.0
 40
1.0
 40
1.0
 40
2.0
 40
2.0
 40
2.0
 40
3.0
 40
3.0
 40
3.0
 40
4.0
 40
4.0
 40
4.0
 40
5.0
 40
5.0
 40
5.0
 40
6.0
 40
6.0
 40
6.0
 40
7.0
 40
7.0
 40
7.0
 40
8.0
 40
8.0
 40
8.0
 40
9.0
 40
9.0
 40
9.0
 40
10.0
 40
10.0
 40
10.0
 40
11.0
 40
11.0
 40
11.0
 40
12.0
 40
12.0
 40
12.0
 40
13.0
 40
13.0
 40
13.0
 40
14.0
 40
14.0
 40
14.0
 40
15.0
 40
15.0
 40
15.0
 40
16.0
 40
16.0
 40
16.0
 40
17.0
 40
17.0
 40
17.0
 40
18.0
 40
18.0
 40
18.0
 40
19.0
 40
19.0
 40
19.0
 40
19.0
 10
767.1609144286489
 20
-904.6874943776005
 30
0.0
 10
767.7489926159329
 20
-890.279751044029
 30
0.0
 10
773.3627794125315
 20
-853.3582938621778
 30
0.0
 10
778.0281307963633
 20
-832.0875712849706
 30
0.0
 10
782.693482180195
 20
-810.8085804731445
 30
0.0
 10
793.7729165697998
 20
-781.3791773855326
 30
0.0
 10
794.9411492195246
 20
-774.5013842215379
 30
0.0
 10
796.1055922617156
 20
-767.6077436078565
 30
0.0
 10
799.0263461409155
 20
-765.0928222445445
 30
0.0
 10
797.27795902875
 20
-761.3507570598465
 30
0.0
 10
795.5292274068087
 20
-757.6011126600811
 30
0.0
 10
790.2878556778458
 20
-756.957223889118
 30
0.0
 10
787.3588335640267
 20
-751.328967681936
 30
0.0
 10
784.4501375269797
 20
-745.6852085348431
 30
0.0
 10
778.6162089836473
 20
-728.1717095724691
 30
0.0
 10
774.5189542201035
 20
-720.0206082771317
 30
0.0
 10
770.4416810235558
 20
-711.8850099217052
 30
0.0
 10
763.4395198304987
 20
-706.2567537145233
 30
0.0
 10
754.1088170628352
 20
-704.3705626920391
 30
0.0
 10
744.7781142951718
 20
-702.4843716695551
 30
0.0
 10
607.1126969065743
 20
-699.9997671665132
 30
0.0
 10
603.0354237100266
 20
-699.9997671665132
 30
0.0
 10
598.9540163961694
 20
-699.9997671665132
 30
0.0
 10
587.8628686741877
 20
-693.1137057678993
 30
0.0
 10
585.5339825898055
 20
-691.8486658711759
 30
0.0
 10
583.1975172903559
 20
-690.6063636196549
 30
0.0
 10
581.4487856684145
 20
-688.0914422563428
 30
0.0
 10
581.4487856684145
 20
-688.0914422563428
 30
0.0
 10
581.4487856684145
 20
-688.0914422563428
 30
0.0
 10
475.2846531590671
 20
-686.2204096639938
 30
0.0
 10
390.6913112416453
 20
-688.7356755370816
 30
0.0
 10
306.1179508912196
 20
-691.2354384702586
 30
0.0
 10
253.6218957651752
 20
-694.954766009754
 30
0.0
 10
191.1950018420304
 20
-701.2420694180341
 30
0.0
 10
128.7922236031914
 20
-707.5066351811117
 30
0.0
 10
73.96383729500688
 20
-713.7560425140542
 30
0.0
 10
65.79344345222493
 20
-715.6349988312465
 30
0.0
 10
57.61891549213345
 20
-717.5284245590223
 30
0.0
 10
49.46057949150437
 20
-717.5284245590223
 30
0.0
 10
48.28821272447001
 20
-726.2851740402093
 30
0.0
 10
47.1196355649694
 20
-735.0498472462397
 30
0.0
 10
39.54558814409063
 20
-753.8287306151129
 30
0.0
 10
31.94329092159657
 20
-762.600638526435
 30
0.0
 10
24.37303310825156
 20
-771.357388007622
 30
0.0
 10
9.792345867230303
 20
-785.7730550660369
 30
0.0
 10
-32.21614266402714
 20
-797.6507186061615
 30
0.0
 10
-74.20878374559796
 20
-809.543540576421
 30
0.0
 10
-160.5508572849612
 20
-844.6015443809907
 30
0.0
 10
-178.624184633004
 20
-850.2298005881728
 30
0.0
 10
-196.7057802156659
 20
-855.8656360104222
 30
0.0
 10
-212.4626238312553
 20
-865.8877698981086
 30
0.0
 10
-212.4626238312553
 20
-875.2656705050562
 30
0.0
 10
-212.4626238312553
 20
-875.2656705050562
 30
0.0
 10
-212.4626238312553
 20
-904.7026528077356
 30
0.0
 10
-212.4626238312553
 20
-904.7026528077356
 30
0.0
 10
-212.4626238312553
 20
-904.7026528077356
 30
0.0
 10
767.1609144286489
 20
-904.6874943776005
 30
0.0
 10
767.1609144286489
 20
-904.6874943776005
 30
0.0
  0
SPLINE
  5
B6
330
75
100
AcDbEntity
  8
\U+30EC\U+30A4\U+30E4\U+30FC 1
 62
   250
420
  2234132
370
    13
100
AcDbSpline
210
0.0
220
0.0
230
1.0
 70
     8
 71
     3
 72
    23
 73
    19
 74
     0
 42
0.0000000001
 43
0.0000000001
 40
0.0
 40
0.0
 40
0.0
 40
0.0
 40
1.0
 40
1.0
 40
1.0
 40
2.0
 40
2.0
 40
2.0
 40
3.0
 40
3.0
 40
3.0
 40
4.0
 40
4.0
 40
4.0
 40
5.0
 40
5.0
 40
5.0
 40
6.0
 40
6.0
 40
6.0
 40
6.0
 10
211.3012813770464
 20
-895.2868561254505
 30
0.0
 10
234.7482722079579
 20
-879.9093177730127
 30
0.0
 10
282.238600291684
 20
-849.3433769350492
 30
0.0
 10
325.9437994687375
 20
-828.3151892400026
 30
0.0
 10
381.9445525439564
 20
-801.4082867307702
 30
0.0
 10
467.1142593162852
 20
-773.2363443248144
 30
0.0
 10
522.5310683215296
 20
-763.8505199930236
 30
0.0
 10
577.9478773267739
 20
-754.4571164461652
 30
0.0
 10
639.2024044828843
 20
-751.328967681936
 30
0.0
 10
672.4441527494566
 20
-751.9497742979207
 30
0.0
 10
705.6941692506481
 20
-752.5788491485245
 30
0.0
 10
757.6059357969422
 20
-758.2071053557065
 30
0.0
 10
760.5229000686084
 20
-758.828256481467
 30
0.0
 10
763.4395198304987
 20
-759.4797244674976
 30
0.0
 10
766.3644078270082
 20
-759.4797244674976
 30
0.0
 10
771.6023344582131
 20
-759.4797244674976
 30
0.0
 10
771.6023344582131
 20
-759.4797244674976
 30
0.0
 10
794.9411492195246
 20
-759.4797244674976
 30
0.0
 10
794.9411492195246
 20
-759.4797244674976
 30
0.0
  0
SPLINE
  5
B7
330
75
100
AcDbEntity
  8
\U+30EC\U+30A4\U+30E4\U+30FC 1
  6
AI-Linetype-8
 62
   250
420
  2234132
370
    13
100
AcDbSpline
210
0.0
220
0.0
230
1.0
 70
     8
 71
     3
 72
    11
 73
     7
 74
     0
 42
0.0000000001
 43
0.0000000001
 40
0.0
 40
0.0
 40
0.0
 40
0.0
 40
1.0
 40
1.0
 40
1.0
 40
2.0
 40
2.0
 40
2.0
 40
2.0
 10
598.5099432951682
 20
-245.1125043030098
 30
0.0
 10
588.8750383954767
 20
-247.0669082611015
 30
0.0
 10
569.2052527463945
 20
-258.8308835752132
 30
0.0
 10
564.3876280416608
 20
-262.3610752477966
 30
0.0
 10
559.570347846703
 20
-265.8912669203799
 30
0.0
 10
559.1982772888432
 20
-270.6785747648435
 30
0.0
 10
559.1982772888432
 20
-276.5569450692535
 30
0.0
  0
SPLINE
  5
B9
330
75
100
AcDbEntity
  8
\U+30EC\U+30A4\U+30E4\U+30FC 1
  6
AI-Linetype-9
 62
   250
420
  2234132
370
    13
100
AcDbSpline
210
0.0
220
0.0
230
1.0
 70
     8
 71
     3
 72
    11
 73
     7
 74
     0
 42
0.0000000001
 43
0.0000000001
 40
0.0
 40
0.0
 40
0.0
 40
0.0
 40
1.0
 40
1.0
 40
1.0
 40
2.0
 40
2.0
 40
2.0
 40
2.0
 10
777.443842216613
 20
-224.7581777294206
 30
0.0
 10
796.2575210728418
 20
-218.872228209943
 30
0.0
 10
841.3190552372048
 20
-211.4259939158846
 30
0.0
 10
869.3235658921238
 20
-207.5171859997013
 30
0.0
 10
897.3201528221995
 20
-203.5780612232479
 30
0.0
 10
954.1932046497342
 20
-200.4571471643104
 30
0.0
 10
966.8849447900651
 20
-201.6312364802237
 30
0.0
  0
SPLINE
  5
BB
330
75
100
AcDbEntity
  8
\U+30EC\U+30A4\U+30E4\U+30FC 1
  6
AI-Linetype-10
 62
   250
420
  2234132
370
    13
100
AcDbSpline
210
0.0
220
0.0
230
1.0
 70
     8
 71
     3
 72
    17
 73
    13
 74
     0
 42
0.0000000001
 43
0.0000000001
 40
0.0
 40
0.0
 40
0.0
 40
0.0
 40
1.0
 40
1.0
 40
1.0
 40
2.0
 40
2.0
 40
2.0
 40
3.0
 40
3.0
 40
3.0
 40
4.0
 40
4.0
 40
4.0
 40
4.0
 10
782.6976162975045
 20
-201.2371172967129
 30
0.0
 10
796.6936704489997
 20
-196.1466408495487
 30
0.0
 10
828.6314492141835
 20
-188.7004065554903
 30
0.0
 10
860.1289444858999
 20
-185.1705593926828
 30
0.0
 10
891.63022936515
 20
-181.647946935167
 30
0.0
 10
940.197150498239
 20
-186.3522279236637
 30
0.0
 10
949.3838481796197
 20
-187.1321980560662
 30
0.0
 10
958.5746799783099
 20
-187.9128572080203
 30
0.0
 10
983.4978951985079
 20
-200.4571471643104
 30
0.0
 10
970.3741397993286
 20
-207.5171859997013
 30
0.0
 10
957.2500398903736
 20
-214.5469079748221
 30
0.0
 10
941.069449250555
 20
-219.266002883678
 30
0.0
 10
931.0063186995488
 20
-221.213172136478
 30
0.0
  0
SPLINE
  5
BD
330
75
100
AcDbEntity
  8
\U+30EC\U+30A4\U+30E4\U+30FC 1
  6
AI-Linetype-11
 62
   250
420
  2234132
370
    13
100
AcDbSpline
210
0.0
220
0.0
230
1.0
 70
     8
 71
     3
 72
    11
 73
     7
 74
     0
 42
0.0000000001
 43
0.0000000001
 40
0.0
 40
0.0
 40
0.0
 40
0.0
 40
1.0
 40
1.0
 40
1.0
 40
2.0
 40
2.0
 40
2.0
 40
2.0
 10
768.6932939113902
 20
-263.9365184525125
 30
0.0
 10
794.0729845845183
 20
-258.8308835752132
 30
0.0
 10
840.0068175011972
 20
-249.430589832839
 30
0.0
 10
864.5062856971659
 20
-246.2941728339907
 30
0.0
 10
889.0016197758251
 20
-243.1656795599856
 30
0.0
 10
952.8726986791075
 20
-239.2341339985998
 30
0.0
 10
969.9379904231707
 20
-240.4161470393564
 30
0.0
  0
SPLINE
  5
BF
330
75
100
AcDbEntity
  8
\U+30EC\U+30A4\U+30E4\U+30FC 1
  6
AI-Linetype-12
 62
   250
420
  2234132
370
    13
100
AcDbSpline
210
0.0
220
0.0
230
1.0
 70
     8
 71
     3
 72
    17
 73
    13
 74
     0
 42
0.0000000001
 43
0.0000000001
 40
0.0
 40
0.0
 40
0.0
 40
0.0
 40
1.0
 40
1.0
 40
1.0
 40
2.0
 40
2.0
 40
2.0
 40
3.0
 40
3.0
 40
3.0
 40
4.0
 40
4.0
 40
4.0
 40
4.0
 10
918.7545175429098
 20
-263.5427437787774
 30
0.0
 10
931.4424680757068
 20
-261.1945651469508
 30
0.0
 10
958.998771512315
 20
-256.4902841584541
 30
0.0
 10
965.1286339530562
 20
-252.1649639233332
 30
0.0
 10
971.2502281591783
 20
-247.8623813334148
 30
0.0
 10
977.8245082106966
 20
-238.4689777865565
 30
0.0
 10
968.1892588012294
 20
-231.8106373497439
 30
0.0
 10
958.5746799783099
 20
-225.1367939730206
 30
0.0
 10
920.4991150475415
 20
-221.213172136478
 30
0.0
 10
892.0663787413079
 20
-222.0158799140831
 30
0.0
 10
863.6219291026972
 20
-222.7886153411939
 30
0.0
 10
791.4402408778839
 20
-233.3557636941897
 30
0.0
 10
774.3749491338207
 20
-238.0752031128215
 30
0.0
  0
SPLINE
  5
C1
330
75
100
AcDbEntity
  8
\U+30EC\U+30A4\U+30E4\U+30FC 1
 62
   250
420
  2234132
370
    13
100
AcDbSpline
210
0.0
220
0.0
230
1.0
 70
     8
 71
     3
 72
     8
 73
     4
 74
     0
 42
0.0000000001
 43
0.0000000001
 40
0.0
 40
0.0
 40
0.0
 40
0.0
 40
1.0
 40
1.0
 40
1.0
 40
1.0
 10
-90.15372969877204
 20
-894.9078953720747
 30
0.0
 10
-89.34929937228799
 20
-878.1368149765414
 30
0.0
 10
-87.4407152143772
 20
-842.1548359532864
 30
0.0
 10
-85.65615457575305
 20
-837.8594880686597
 30
0.0
  0
SPLINE
  5
C2
330
75
100
AcDbEntity
  8
\U+30EC\U+30A4\U+30E4\U+30FC 1
 62
   250
420
  2234132
370
    13
100
AcDbSpline
210
0.0
220
0.0
230
1.0
 70
    11
 71
     3
 72
    41
 73
    37
 74
     0
 42
0.0000000001
 43
0.0000000001
 40
0.0
 40
0.0
 40
0.0
 40
0.0
 40
1.0
 40
1.0
 40
1.0
 40
2.0
 40
2.0
 40
2.0
 40
3.0
 40
3.0
 40
3.0
 40
4.0
 40
4.0
 40
4.0
 40
5.0
 40
5.0
 40
5.0
 40
6.0
 40
6.0
 40
6.0
 40
7.0
 40
7.0
 40
7.0
 40
8.0
 40
8.0
 40
8.0
 40
9.0
 40
9.0
 40
9.0
 40
10.0
 40
10.0
 40
10.0
 40
11.0
 40
11.0
 40
11.0
 40
12.0
 40
12.0
 40
12.0
 40
12.0
 10
1213.415451330252
 20
-387.8584073552734
 30
0.0
 10
1213.415451330252
 20
-387.8584073552734
 30
0.0
 10
1055.259626006626
 20
-387.8584073552734
 30
0.0
 10
1055.259626006626
 20
-387.8584073552734
 30
0.0
 10
1055.259626006626
 20
-387.8584073552734
 30
0.0
 10
1055.327494432458
 20
-900.968166838105
 30
0.0
 10
1055.259626006626
 20
-902.4909000471241
 30
0.0
 10
1055.195891698103
 20
-904.0057095312999
 30
0.0
 10
1056.356200622985
 20
-904.6950735926681
 30
0.0
 10
1057.668438358992
 20
-904.6950735926681
 30
0.0
 10
1057.668438358992
 20
-904.6950735926681
 30
0.0
 10
1400.231733921913
 20
-904.6950735926681
 30
0.0
 10
1400.231733921913
 20
-904.6950735926681
 30
0.0
 10
1401.712092428509
 20
-904.6950735926681
 30
0.0
 10
1402.492407070687
 20
-903.3163454699318
 30
0.0
 10
1402.492407070687
 20
-902.4909000471241
 30
0.0
 10
1402.492407070687
 20
-902.4909000471241
 30
0.0
 10
1402.492407070687
 20
-769.8877093040755
 30
0.0
 10
1402.492407070687
 20
-769.8877093040755
 30
0.0
 10
1402.492407070687
 20
-769.8877093040755
 30
0.0
 10
1402.492407070687
 20
-756.3512311934925
 30
0.0
 10
1402.492407070687
 20
-756.3512311934925
 30
0.0
 10
1402.492407070687
 20
-756.3512311934925
 30
0.0
 10
1402.492407070687
 20
-387.8584073552734
 30
0.0
 10
1402.492407070687
 20
-387.8584073552734
 30
0.0
 10
1402.492407070687
 20
-387.8584073552734
 30
0.0
 10
1299.317241376148
 20
-387.8584073552734
 30
0.0
 10
1299.317241376148
 20
-387.8584073552734
 30
0.0
 10
1299.317241376148
 20
-387.8584073552734
 30
0.0
 10
1286.033288931223
 20
-387.8584073552734
 30
0.0
 10
1286.033288931223
 20
-387.8584073552734
 30
0.0
 10
1286.033288931223
 20
-387.8584073552734
 30
0.0
 10
1235.878177731714
 20
-387.8584073552734
 30
0.0
 10
1235.878177731714
 20
-387.8584073552734
 30
0.0
 10
1235.878177731714
 20
-387.8584073552734
 30
0.0
 10
1213.415451330252
 20
-387.8584073552734
 30
0.0
 10
1213.415451330252
 20
-387.8584073552734
 30
0.0
  0
SPLINE
  5
C3
330
75
100
AcDbEntity
  8
\U+30EC\U+30A4\U+30E4\U+30FC 1
 62
   250
420
  2234132
370
    13
100
AcDbSpline
210
0.0
220
0.0
230
1.0
 70
     8
 71
     3
 72
    20
 73
    16
 74
     0
 42
0.0000000001
 43
0.0000000001
 40
0.0
 40
0.0
 40
0.0
 40
0.0
 40
1.0
 40
1.0
 40
1.0
 40
2.0
 40
2.0
 40
2.0
 40
3.0
 40
3.0
 40
3.0
 40
4.0
 40
4.0
 40
4.0
 40
5.0
 40
5.0
 40
5.0
 40
5.0
 10
1234.325816681976
 20
-479.6313330002874
 30
0.0
 10
1230.58444051683
 20
-484.6535965118439
 30
0.0
 10
1224.414614942096
 20
-487.9412533022668
 30
0.0
 10
1217.440703550654
 20
-487.9412533022668
 30
0.0
 10
1206.033295854492
 20
-487.9412533022668
 30
0.0
 10
1196.79423268719
 20
-479.1917385263715
 30
0.0
 10
1196.79423268719
 20
-468.412716661261
 30
0.0
 10
1196.79423268719
 20
-457.6178473464638
 30
0.0
 10
1206.033295854492
 20
-448.8762562954118
 30
0.0
 10
1217.440703550654
 20
-448.8762562954118
 30
0.0
 10
1228.823995562511
 20
-448.8762562954118
 30
0.0
 10
1238.062714220037
 20
-457.6178473464638
 30
0.0
 10
1238.062714220037
 20
-468.412716661261
 30
0.0
 10
1238.062714220037
 20
-470.1245857371921
 30
0.0
 10
1237.830859140926
 20
-471.7834003076507
 30
0.0
 10
1237.394709764769
 20
-473.3440295920074
 30
0.0
  0
SPLINE
  5
C4
330
75
100
AcDbEntity
  8
\U+30EC\U+30A4\U+30E4\U+30FC 1
 62
   250
420
  2234132
370
    13
100
AcDbSpline
210
0.0
220
0.0
230
1.0
 70
     8
 71
     3
 72
    35
 73
    31
 74
     0
 42
0.0000000001
 43
0.0000000001
 40
0.0
 40
0.0
 40
0.0
 40
0.0
 40
1.0
 40
1.0
 40
1.0
 40
2.0
 40
2.0
 40
2.0
 40
3.0
 40
3.0
 40
3.0
 40
4.0
 40
4.0
 40
4.0
 40
5.0
 40
5.0
 40
5.0
 40
6.0
 40
6.0
 40
6.0
 40
7.0
 40
7.0
 40
7.0
 40
8.0
 40
8.0
 40
8.0
 40
9.0
 40
9.0
 40
9.0
 40
10.0
 40
10.0
 40
10.0
 40
10.0
 10
1239.587169977935
 20
-474.4120098969755
 30
0.0
 10
1240.207287574368
 20
-472.1017273404863
 30
0.0
 10
1240.62345538353
 20
-470.2530878835641
 30
0.0
 10
1240.695802436447
 20
-469.3063750196762
 30
0.0
 10
1240.983812609013
 20
-465.0261855651846
 30
0.0
 10
1239.223367654695
 20
-458.1180755409198
 30
0.0
 10
1236.754610601339
 20
-454.7997573804512
 30
0.0
 10
1234.281719430674
 20
-451.4972866696691
 30
0.0
 10
1228.155646597467
 20
-445.6947085159342
 30
0.0
 10
1219.409232409554
 20
-445.4142775584361
 30
0.0
 10
1210.650415869712
 20
-445.1417703257814
 30
0.0
 10
1203.06844472399
 20
-447.0734366386705
 30
0.0
 10
1196.510356631934
 20
-457.4283669697759
 30
0.0
 10
1189.944344815035
 20
-467.7836418106572
 30
0.0
 10
1189.072046062719
 20
-478.4041891789014
 30
0.0
 10
1188.487757482969
 20
-482.8280392099001
 30
0.0
 10
1187.911737137837
 20
-487.2443100258312
 30
0.0
 10
1187.747405974783
 20
-493.8650988970819
 30
0.0
 10
1187.747405974783
 20
-495.1074011486029
 30
0.0
 10
1187.747405974783
 20
-496.3572826151914
 30
0.0
 10
1188.051952616586
 20
-499.129897290799
 30
0.0
 10
1190.228565380067
 20
-499.129897290799
 30
0.0
 10
1192.41310186839
 20
-499.129897290799
 30
0.0
 10
1230.044249188381
 20
-498.7054612470181
 30
0.0
 10
1230.044249188381
 20
-498.7054612470181
 30
0.0
 10
1230.776676971724
 20
-498.7054612470181
 30
0.0
 10
1232.088914707732
 20
-497.7360107379277
 30
0.0
 10
1232.532987808733
 20
-496.9178000204118
 30
0.0
 10
1232.789303081925
 20
-496.425495550799
 30
0.0
 10
1235.453741687933
 20
-488.4714538472171
 30
0.0
 10
1237.658604253028
 20
-481.1389077791715
 30
0.0
  0
SPLINE
  5
C5
330
75
100
AcDbEntity
  8
\U+30EC\U+30A4\U+30E4\U+30FC 1
 62
   250
420
  2234132
370
    13
100
AcDbSpline
210
0.0
220
0.0
230
1.0
 70
     8
 71
     3
 72
    38
 73
    34
 74
     0
 42
0.0000000001
 43
0.0000000001
 40
0.0
 40
0.0
 40
0.0
 40
0.0
 40
1.0
 40
1.0
 40
1.0
 40
2.0
 40
2.0
 40
2.0
 40
3.0
 40
3.0
 40
3.0
 40
4.0
 40
4.0
 40
4.0
 40
5.0
 40
5.0
 40
5.0
 40
6.0
 40
6.0
 40
6.0
 40
7.0
 40
7.0
 40
7.0
 40
8.0
 40
8.0
 40
8.0
 40
9.0
 40
9.0
 40
9.0
 40
10.0
 40
10.0
 40
10.0
 40
11.0
 40
11.0
 40
11.0
 40
11.0
 10
1247.233564451731
 20
-478.0328076405932
 30
0.0
 10
1247.925684591306
 20
-474.3665346065704
 30
0.0
 10
1248.441760235448
 20
-471.3972048489832
 30
0.0
 10
1248.565783754735
 20
-470.1321649522596
 30
0.0
 10
1249.001933130893
 20
-465.7158941363286
 30
0.0
 10
1244.912602092192
 20
-453.9743119576435
 30
0.0
 10
1240.247250708361
 20
-449.56562035678
 30
0.0
 10
1235.593957166682
 20
-445.1341911107139
 30
0.0
 10
1226.54747496405
 20
-440.0285562334146
 30
0.0
 10
1213.711385227661
 20
-440.998006742505
 30
0.0
 10
1200.871505883738
 20
-441.9674572515955
 30
0.0
 10
1195.197774386151
 20
-452.459157963692
 30
0.0
 10
1192.565030679516
 20
-459.0951052650778
 30
0.0
 10
1189.944344815035
 20
-465.7158941363286
 30
0.0
 10
1187.311256598625
 20
-478.4041891789014
 30
0.0
 10
1186.739370370803
 20
-482.1386751485319
 30
0.0
 10
1186.150947673743
 20
-485.8731611181624
 30
0.0
 10
1185.867071618487
 20
-493.1757348357138
 30
0.0
 10
1185.867071618487
 20
-494.6981235349571
 30
0.0
 10
1185.867071618487
 20
-496.2208567439761
 30
0.0
 10
1187.175519746961
 20
-498.8494663333009
 30
0.0
 10
1188.487757482969
 20
-500.2206152409697
 30
0.0
 10
1189.792416003909
 20
-501.6069225787734
 30
0.0
 10
1192.565030679516
 20
-504.2279529530307
 30
0.0
 10
1196.946506008092
 20
-504.3640343144702
 30
0.0
 10
1201.319713102048
 20
-504.5004601856855
 30
0.0
 10
1237.050544498748
 20
-503.674670253102
 30
0.0
 10
1238.66319475925
 20
-503.674670253102
 30
0.0
 10
1239.823503684132
 20
-503.674670253102
 30
0.0
 10
1241.71589588258
 20
-502.7127989590791
 30
0.0
 10
1242.292260737487
 20
-501.4629174924906
 30
0.0
 10
1242.608176201892
 20
-500.7887118612575
 30
0.0
 10
1244.324868414684
 20
-492.7819601619788
 30
0.0
 10
1245.893076914108
 20
-484.9491858994771
 30
0.0
  0
SPLINE
  5
C6
330
75
100
AcDbEntity
  8
\U+30EC\U+30A4\U+30E4\U+30FC 1
 62
   250
420
  2234132
370
    13
100
AcDbSpline
210
0.0
220
0.0
230
1.0
 70
     8
 71
     3
 72
    17
 73
    13
 74
     0
 42
0.0000000001
 43
0.0000000001
 40
0.0
 40
0.0
 40
0.0
 40
0.0
 40
1.0
 40
1.0
 40
1.0
 40
2.0
 40
2.0
 40
2.0
 40
3.0
 40
3.0
 40
3.0
 40
4.0
 40
4.0
 40
4.0
 40
4.0
 10
1328.54992938178
 20
-264.2093701949431
 30
0.0
 10
1330.086442981831
 20
-264.0956819689303
 30
0.0
 10
1333.363419969204
 20
-264.6110685935214
 30
0.0
 10
1334.23571872152
 20
-267.7244034373913
 30
0.0
 10
1335.108017473836
 20
-270.8301590661938
 30
0.0
 10
1337.628795503336
 20
-293.0858350924021
 30
0.0
 10
1338.168986831785
 20
-309.8572599977112
 30
0.0
 10
1338.725370119696
 20
-326.6362641180878
 30
0.0
 10
1340.361791554727
 20
-338.6503535294276
 30
0.0
 10
1339.277274780521
 20
-350.543520009463
 30
0.0
 10
1338.585154640946
 20
-358.0958633144666
 30
0.0
 10
1331.170959756037
 20
-384.3134017623308
 30
0.0
 10
1324.392729917248
 20
-387.6086377678212
 30
0.0
  0
SPLINE
  5
C7
330
75
100
AcDbEntity
  8
\U+30EC\U+30A4\U+30E4\U+30FC 1
 62
   250
420
  2234132
370
    13
100
AcDbSpline
210
0.0
220
0.0
230
1.0
 70
     8
 71
     3
 72
    29
 73
    25
 74
     0
 42
0.0000000001
 43
0.0000000001
 40
0.0
 40
0.0
 40
0.0
 40
0.0
 40
1.0
 40
1.0
 40
1.0
 40
2.0
 40
2.0
 40
2.0
 40
3.0
 40
3.0
 40
3.0
 40
4.0
 40
4.0
 40
4.0
 40
5.0
 40
5.0
 40
5.0
 40
6.0
 40
6.0
 40
6.0
 40
7.0
 40
7.0
 40
7.0
 40
8.0
 40
8.0
 40
8.0
 40
8.0
 10
1016.176025471878
 20
-344.7481765610198
 30
0.0
 10
1017.168213626171
 20
-345.3772514116236
 30
0.0
 10
1018.916600738336
 20
-345.4757812075013
 30
0.0
 10
1022.854002965911
 20
-344.7481765610198
 30
0.0
 10
1026.7869265664
 20
-344.0364193642249
 30
0.0
 10
1053.03512638431
 20
-336.8854299480238
 30
0.0
 10
1068.351686506432
 20
-332.8477753756927
 30
0.0
 10
1083.659978393934
 20
-328.8028860980699
 30
0.0
 10
1123.588316898935
 20
-318.144442654488
 30
0.0
 10
1147.431493972012
 20
-311.417544772292
 30
0.0
 10
1171.270881437555
 20
-304.6834121848044
 30
0.0
 10
1198.402748830382
 20
-297.3353631768479
 30
0.0
 10
1222.021994549192
 20
-290.91921311242
 30
0.0
 10
1245.649163992845
 20
-284.4954838329247
 30
0.0
 10
1284.912943140334
 20
-275.2767467423949
 30
0.0
 10
1302.298284466112
 20
-271.0347978730167
 30
0.0
 10
1319.695339124267
 20
-266.7925044938627
 30
0.0
 10
1358.078895794597
 20
-256.2329353559343
 30
0.0
 10
1379.297597395659
 20
-251.9909864865561
 30
0.0
 10
1400.519744094478
 20
-247.733534677267
 30
0.0
 10
1433.765970988136
 20
-241.5296026347297
 30
0.0
 10
1445.477236306551
 20
-239.560040246503
 30
0.0
 10
1457.168864567746
 20
-237.5904778582762
 30
0.0
 10
1483.644785347457
 20
-233.8711503187808
 30
0.0
 10
1487.253869758698
 20
-231.6817906935962
 30
0.0
  0
SPLINE
  5
C8
330
75
100
AcDbEntity
  8
\U+30EC\U+30A4\U+30E4\U+30FC 1
 62
   250
420
  2234132
370
    13
100
AcDbSpline
210
0.0
220
0.0
230
1.0
 70
     8
 71
     3
 72
    71
 73
    67
 74
     0
 42
0.0000000001
 43
0.0000000001
 40
0.0
 40
0.0
 40
0.0
 40
0.0
 40
1.0
 40
1.0
 40
1.0
 40
2.0
 40
2.0
 40
2.0
 40
3.0
 40
3.0
 40
3.0
 40
4.0
 40
4.0
 40
4.0
 40
5.0
 40
5.0
 40
5.0
 40
6.0
 40
6.0
 40
6.0
 40
7.0
 40
7.0
 40
7.0
 40
8.0
 40
8.0
 40
8.0
 40
9.0
 40
9.0
 40
9.0
 40
10.0
 40
10.0
 40
10.0
 40
11.0
 40
11.0
 40
11.0
 40
12.0
 40
12.0
 40
12.0
 40
13.0
 40
13.0
 40
13.0
 40
14.0
 40
14.0
 40
14.0
 40
15.0
 40
15.0
 40
15.0
 40
16.0
 40
16.0
 40
16.0
 40
17.0
 40
17.0
 40
17.0
 40
18.0
 40
18.0
 40
18.0
 40
19.0
 40
19.0
 40
19.0
 40
20.0
 40
20.0
 40
20.0
 40
21.0
 40
21.0
 40
21.0
 40
22.0
 40
22.0
 40
22.0
 40
22.0
 10
1062.333789742824
 20
-387.7223259938339
 30
0.0
 10
1058.980676095
 20
-387.7223259938339
 30
0.0
 10
1056.508129434111
 20
-385.0937164045091
 30
0.0
 10
1053.875041217701
 20
-382.6091119014671
 30
0.0
 10
1051.254699862995
 20
-380.1393213187844
 30
0.0
 10
1036.822151825566
 20
-347.6799547530452
 30
0.0
 10
1035.213635682374
 20
-347.1270165628923
 30
0.0
 10
1033.605119539182
 20
-346.5740783727395
 30
0.0
 10
1025.4347256964
 20
-346.9905906916771
 30
0.0
 10
1022.241809094321
 20
-346.9905906916771
 30
0.0
 10
1019.03270053278
 20
-346.9905906916771
 30
0.0
 10
1014.943369494079
 20
-345.4757812075013
 30
0.0
 10
1013.043053570787
 20
-339.824442845341
 30
0.0
 10
1011.150316862563
 20
-334.1507113477538
 30
0.0
 10
1002.987846744625
 20
-309.3119010226259
 30
0.0
 10
998.8947260983903
 20
-288.6013513408634
 30
0.0
 10
994.8174529018427
 20
-267.8908016591009
 30
0.0
 10
993.2089367586503
 20
-250.218139180309
 30
0.0
 10
991.4643392540186
 20
-234.6283828059808
 30
0.0
 10
989.715952141853
 20
-219.0162332962258
 30
0.0
 10
985.7826840315881
 20
-182.7238509649784
 30
0.0
 10
985.6386789453053
 20
-175.1256878597939
 30
0.0
 10
985.4867501341791
 20
-167.5354484794527
 30
0.0
 10
985.6386789453053
 20
-148.7641443256469
 30
0.0
 10
986.5068435803116
 20
-145.1736634422992
 30
0.0
 10
987.3791423326276
 20
-141.590761774019
 30
0.0
 10
989.2677449235422
 20
-137.9923571658281
 30
0.0
 10
994.2293747145586
 20
-138.9545729696268
 30
0.0
 10
999.1985837206425
 20
-139.9240234787172
 30
0.0
 10
1060.737331441785
 20
-150.961083165899
 30
0.0
 10
1084.652511058003
 20
-154.0062050741614
 30
0.0
 10
1108.555632832069
 20
-157.0516714921995
 30
0.0
 10
1159.166874974732
 20
-162.5738186884363
 30
0.0
 10
1183.958487460576
 20
-164.6419108725407
 30
0.0
 10
1208.745965829111
 20
-166.7096585468693
 30
0.0
 10
1264.026693472915
 20
-170.421751381073
 30
0.0
 10
1291.287063012115
 20
-171.4063603202985
 30
0.0
 10
1318.559145883691
 20
-172.3609969090296
 30
0.0
 10
1393.669856222323
 20
-175.6786260499468
 30
0.0
 10
1414.812076653159
 20
-176.9285075165353
 30
0.0
 10
1435.95050747646
 20
-178.1635750627645
 30
0.0
 10
1485.825532228247
 20
-180.3677486083084
 30
0.0
 10
1490.054734235921
 20
-180.7918401423135
 30
0.0
 10
1494.283936243595
 20
-181.1935385408918
 30
0.0
 10
1501.274039594499
 20
-182.2994149211975
 30
0.0
 10
1500.986029421933
 20
-185.4809627006751
 30
0.0
 10
1500.698019249367
 20
-188.6625104801527
 30
0.0
 10
1497.640839498952
 20
-202.3206005415919
 30
0.0
 10
1496.028533748226
 20
-208.1155994802592
 30
0.0
 10
1494.432075447187
 20
-213.9181776339941
 30
0.0
 10
1490.346878525796
 20
-229.3790873521746
 30
0.0
 10
1489.186569600914
 20
-230.4849637324803
 30
0.0
 10
1488.017992441414
 20
-231.5984193278535
 30
0.0
 10
1482.184408407857
 20
-234.0754446158279
 30
0.0
 10
1480.575892264665
 20
-234.4923014445413
 30
0.0
 10
1478.979433963626
 20
-234.9012345484114
 30
0.0
 10
1477.082907647868
 20
-236.2723834560801
 30
0.0
 10
1476.642968664176
 20
-238.8934138303374
 30
0.0
 10
1476.206819288018
 20
-241.5296026347297
 30
0.0
 10
1473.513786370619
 20
-257.2705988006324
 30
0.0
 10
1465.703405243544
 20
-279.3595320953553
 30
0.0
 10
1453.019588828057
 20
-315.2429813227327
 30
0.0
 10
1409.554512964733
 20
-376.9501943242393
 30
0.0
 10
1406.209323041752
 20
-380.9575320363003
 30
0.0
 10
1403.312684846858
 20
-384.4040078333652
 30
0.0
 10
1400.367815283352
 20
-387.7223259938339
 30
0.0
 10
1393.953732277579
 20
-387.7223259938339
 30
0.0
  0
SPLINE
  5
C9
330
75
100
AcDbEntity
  8
\U+30EC\U+30A4\U+30E4\U+30FC 1
 62
   250
420
  2234132
370
     5
100
AcDbSpline
210
0.0
220
0.0
230
1.0
 70
    11
 71
     3
 72
    17
 73
    13
 74
     0
 42
0.0000000001
 43
0.0000000001
 40
0.0
 40
0.0
 40
0.0
 40
0.0
 40
1.0
 40
1.0
 40
1.0
 40
2.0
 40
2.0
 40
2.0
 40
3.0
 40
3.0
 40
3.0
 40
4.0
 40
4.0
 40
4.0
 40
4.0
 10
1223.702513235525
 20
-468.192919424303
 30
0.0
 10
1223.702513235525
 20
-471.4347564145449
 30
0.0
 10
1220.925764442608
 20
-474.0633660038698
 30
0.0
 10
1217.500648251643
 20
-474.0633660038698
 30
0.0
 10
1214.083800295296
 20
-474.0633660038698
 30
0.0
 10
1211.30291738507
 20
-471.4347564145449
 30
0.0
 10
1211.30291738507
 20
-468.192919424303
 30
0.0
 10
1211.30291738507
 20
-464.9658963544203
 30
0.0
 10
1214.083800295296
 20
-462.329707550028
 30
0.0
 10
1217.500648251643
 20
-462.329707550028
 30
0.0
 10
1220.925764442608
 20
-462.329707550028
 30
0.0
 10
1223.702513235525
 20
-464.9658963544203
 30
0.0
 10
1223.702513235525
 20
-468.192919424303
 30
0.0
  0
SPLINE
  5
CA
330
75
100
AcDbEntity
  8
\U+30EC\U+30A4\U+30E4\U+30FC 1
 62
   250
420
  2234132
370
    13
100
AcDbSpline
210
0.0
220
0.0
230
1.0
 70
     8
 71
     3
 72
    20
 73
    16
 74
     0
 42
0.0000000001
 43
0.0000000001
 40
0.0
 40
0.0
 40
0.0
 40
0.0
 40
1.0
 40
1.0
 40
1.0
 40
2.0
 40
2.0
 40
2.0
 40
3.0
 40
3.0
 40
3.0
 40
4.0
 40
4.0
 40
4.0
 40
5.0
 40
5.0
 40
5.0
 40
5.0
 10
1223.922310472484
 20
-467.2307036205043
 30
0.0
 10
1223.922310472484
 20
-467.2307036205043
 30
0.0
 10
1254.427962099683
 20
-481.3583605063536
 30
0.0
 10
1254.427962099683
 20
-481.3583605063536
 30
0.0
 10
1255.572079065102
 20
-481.8658234061014
 30
0.0
 10
1256.50811212594
 20
-483.0095958617446
 30
0.0
 10
1256.50811212594
 20
-484.3428486940758
 30
0.0
 10
1256.50811212594
 20
-486.1384336455254
 30
0.0
 10
1254.984000877818
 20
-487.5853747038694
 30
0.0
 10
1253.087130052284
 20
-487.5853747038694
 30
0.0
 10
1252.619285776753
 20
-487.5853747038694
 30
0.0
 10
1252.159020716289
 20
-487.4944241230592
 30
0.0
 10
1251.75491074928
 20
-487.3428398217089
 30
0.0
 10
1251.75491074928
 20
-487.3428398217089
 30
0.0
 10
1220.27326292725
 20
-473.442559387885
 30
0.0
 10
1220.27326292725
 20
-473.442559387885
 30
0.0
  0
SPLINE
  5
CB
330
75
100
AcDbEntity
  8
\U+30EC\U+30A4\U+30E4\U+30FC 1
 62
   250
420
  2234132
370
    13
100
AcDbSpline
210
0.0
220
0.0
230
1.0
 70
     8
 71
     3
 72
    14
 73
    10
 74
     0
 42
0.0000000001
 43
0.0000000001
 40
0.0
 40
0.0
 40
0.0
 40
0.0
 40
1.0
 40
1.0
 40
1.0
 40
2.0
 40
2.0
 40
2.0
 40
3.0
 40
3.0
 40
3.0
 40
3.0
 10
1357.787096014498
 20
-174.1713957808385
 30
0.0
 10
1357.787096014498
 20
-174.1713957808385
 30
0.0
 10
1364.793046815088
 20
-161.3239372218478
 30
0.0
 10
1367.129512114538
 20
-159.528696780174
 30
0.0
 10
1369.450474474077
 20
-157.7255326136568
 30
0.0
 10
1373.979744496469
 20
-155.945450602118
 30
0.0
 10
1376.900498375669
 20
-156.9076664059167
 30
0.0
 10
1379.817462647335
 20
-157.8771169150071
 30
0.0
 10
1412.627540164835
 20
-175.8302103512971
 30
0.0
 10
1414.812076653159
 20
-176.9209283014677
 30
0.0
  0
SPLINE
  5
CC
330
75
100
AcDbEntity
  8
\U+30EC\U+30A4\U+30E4\U+30FC 1
  6
AI-Linetype-13
 62
   250
420
  2234132
370
    13
100
AcDbSpline
210
0.0
220
0.0
230
1.0
 70
     8
 71
     3
 72
    20
 73
    16
 74
     0
 42
0.0000000001
 43
0.0000000001
 40
0.0
 40
0.0
 40
0.0
 40
0.0
 40
1.0
 40
1.0
 40
1.0
 40
2.0
 40
2.0
 40
2.0
 40
3.0
 40
3.0
 40
3.0
 40
4.0
 40
4.0
 40
4.0
 40
5.0
 40
5.0
 40
5.0
 40
5.0
 10
1276.014255631519
 20
-519.597912090401
 30
0.0
 10
1275.566048413208
 20
-519.597912090401
 30
0.0
 10
1275.141956879203
 20
-519.5524367999959
 30
0.0
 10
1274.714075737664
 20
-519.4690654342533
 30
0.0
 10
1268.056079810627
 20
-518.1130749567195
 30
0.0
 10
1265.510841587045
 20
-506.5458147245873
 30
0.0
 10
1274.845678472018
 20
-506.5458147245873
 30
0.0
 10
1274.845678472018
 20
-506.5458147245873
 30
0.0
 10
1307.383937776415
 20
-506.5458147245873
 30
0.0
 10
1307.383937776415
 20
-506.5458147245873
 30
0.0
 10
1322.844158475044
 20
-506.5458147245873
 30
0.0
 10
1321.683849550162
 20
-520.665892395369
 30
0.0
 10
1308.560094150983
 20
-520.665892395369
 30
0.0
 10
1295.436338751804
 20
-520.665892395369
 30
0.0
 10
1275.566048413208
 20
-519.597912090401
 30
0.0
 10
1275.566048413208
 20
-519.597912090401
 30
0.0
  0
POLYLINE
  5
CE
330
75
100
AcDbEntity
  8
\U+30EC\U+30A4\U+30E4\U+30FC 1
  6
AI-Linetype-14
 62
   250
420
  2234132
370
    13
100
AcDb2dPolyline
 66
     1
 10
0.0
 20
0.0
 30
0.0
  0
VERTEX
  5
CF
330
CE
100
AcDbEntity
  8
\U+30EC\U+30A4\U+30E4\U+30FC 1
  6
AI-Linetype-14
 62
   250
420
  2234132
370
    13
100
AcDbVertex
100
AcDb2dVertex
 10
1253.42750571077
 20
-402.8573294641112
 30
0.0
  0
VERTEX
  5
D0
330
CE
100
AcDbEntity
  8
\U+30EC\U+30A4\U+30E4\U+30FC 1
  6
AI-Linetype-14
 62
   250
420
  2234132
370
    13
100
AcDbVertex
100
AcDb2dVertex
 10
1329.838395943258
 20
-402.8573294641112
 30
0.0
  0
SEQEND
  5
D1
330
CE
100
AcDbEntity
  8
\U+30EC\U+30A4\U+30E4\U+30FC 1
  6
AI-Linetype-14
370
    13
  0
SPLINE
  5
D3
330
75
100
AcDbEntity
  8
\U+30EC\U+30A4\U+30E4\U+30FC 1
  6
AI-Linetype-15
 62
   250
420
  2234132
370
    13
100
AcDbSpline
210
0.0
220
0.0
230
1.0
 70
     8
 71
     3
 72
    26
 73
    22
 74
     0
 42
0.0000000001
 43
0.0000000001
 40
0.0
 40
0.0
 40
0.0
 40
0.0
 40
1.0
 40
1.0
 40
1.0
 40
2.0
 40
2.0
 40
2.0
 40
3.0
 40
3.0
 40
3.0
 40
4.0
 40
4.0
 40
4.0
 40
5.0
 40
5.0
 40
5.0
 40
6.0
 40
6.0
 40
6.0
 40
7.0
 40
7.0
 40
7.0
 40
7.0
 10
1336.840557136315
 20
-389.8052320982976
 30
0.0
 10
1336.840557136315
 20
-389.8052320982976
 30
0.0
 10
1336.556336571283
 20
-397.0168552350387
 30
0.0
 10
1336.556336571283
 20
-398.6150360849572
 30
0.0
 10
1336.556336571283
 20
-400.2135614446514
 30
0.0
 10
1335.680248211433
 20
-402.0694356068653
 30
0.0
 10
1333.935650706801
 20
-402.0694356068653
 30
0.0
 10
1332.175205752483
 20
-402.0694356068653
 30
0.0
 10
1329.838395943258
 20
-403.6751956718513
 30
0.0
 10
1329.838395943258
 20
-406.0691941038589
 30
0.0
 10
1329.838395943258
 20
-406.0691941038589
 30
0.0
 10
1329.838395943258
 20
-468.9728895567055
 30
0.0
 10
1329.838395943258
 20
-468.9728895567055
 30
0.0
 10
1329.838395943258
 20
-475.0862155282086
 30
0.0
 10
1329.854243392944
 20
-480.426461562825
 30
0.0
 10
1325.773180588863
 20
-482.562766682537
 30
0.0
 10
1321.683849550162
 20
-484.683913372114
 30
0.0
 10
1310.59270182818
 20
-490.0169247014387
 30
0.0
 10
1310.59270182818
 20
-492.152885311375
 30
0.0
 10
1310.59270182818
 20
-492.152885311375
 30
0.0
 10
1310.59270182818
 20
-559.3295355134215
 30
0.0
 10
1310.59270182818
 20
-559.3295355134215
 30
0.0
  0
SPLINE
  5
D5
330
75
100
AcDbEntity
  8
\U+30EC\U+30A4\U+30E4\U+30FC 1
  6
AI-Linetype-16
 62
   250
420
  2234132
370
    13
100
AcDbSpline
210
0.0
220
0.0
230
1.0
 70
     8
 71
     3
 72
    26
 73
    22
 74
     0
 42
0.0000000001
 43
0.0000000001
 40
0.0
 40
0.0
 40
0.0
 40
0.0
 40
1.0
 40
1.0
 40
1.0
 40
2.0
 40
2.0
 40
2.0
 40
3.0
 40
3.0
 40
3.0
 40
4.0
 40
4.0
 40
4.0
 40
5.0
 40
5.0
 40
5.0
 40
6.0
 40
6.0
 40
6.0
 40
7.0
 40
7.0
 40
7.0
 40
7.0
 10
1249.638242686789
 20
-389.8052320982976
 30
0.0
 10
1249.638242686789
 20
-389.8052320982976
 30
0.0
 10
1249.934176584197
 20
-397.0168552350387
 30
0.0
 10
1249.934176584197
 20
-398.6150360849572
 30
0.0
 10
1249.934176584197
 20
-400.2135614446514
 30
0.0
 10
1250.806475336513
 20
-402.0694356068653
 30
0.0
 10
1252.555206958455
 20
-402.0694356068653
 30
0.0
 10
1254.303938580396
 20
-402.0694356068653
 30
0.0
 10
1256.640403879846
 20
-403.6751956718513
 30
0.0
 10
1256.640403879846
 20
-406.0691941038589
 30
0.0
 10
1256.640403879846
 20
-406.0691941038589
 30
0.0
 10
1256.640403879846
 20
-468.9728895567055
 30
0.0
 10
1256.640403879846
 20
-468.9728895567055
 30
0.0
 10
1256.640403879846
 20
-475.0862155282086
 30
0.0
 10
1256.628346037693
 20
-480.426461562825
 30
0.0
 10
1260.717677076393
 20
-482.562766682537
 30
0.0
 10
1264.810797722628
 20
-484.683913372114
 30
0.0
 10
1275.886097994923
 20
-490.0169247014387
 30
0.0
 10
1275.886097994923
 20
-492.152885311375
 30
0.0
 10
1275.886097994923
 20
-492.152885311375
 30
0.0
 10
1275.886097994923
 20
-559.3295355134215
 30
0.0
 10
1275.886097994923
 20
-559.3295355134215
 30
0.0
  0
SPLINE
  5
D7
330
75
100
AcDbEntity
  8
\U+30EC\U+30A4\U+30E4\U+30FC 1
 62
   250
420
  2234132
370
    13
100
AcDbSpline
210
0.0
220
0.0
230
1.0
 70
    11
 71
     3
 72
    17
 73
    13
 74
     0
 42
0.0000000001
 43
0.0000000001
 40
0.0
 40
0.0
 40
0.0
 40
0.0
 40
1.0
 40
1.0
 40
1.0
 40
2.0
 40
2.0
 40
2.0
 40
3.0
 40
3.0
 40
3.0
 40
4.0
 40
4.0
 40
4.0
 40
4.0
 10
1121.995648205429
 20
-460.1858232152484
 30
0.0
 10
1121.995648205429
 20
-468.5109019473629
 30
0.0
 10
1114.869808002861
 20
-475.2453790446264
 30
0.0
 10
1106.091009896023
 20
-475.2453790446264
 30
0.0
 10
1097.304288064342
 20
-475.2453790446264
 30
0.0
 10
1090.182237469307
 20
-468.5109019473629
 30
0.0
 10
1090.182237469307
 20
-460.1858232152484
 30
0.0
 10
1090.182237469307
 20
-451.875902913269
 30
0.0
 10
1097.304288064342
 20
-445.1341911107139
 30
0.0
 10
1106.091009896023
 20
-445.1341911107139
 30
0.0
 10
1114.869808002861
 20
-445.1341911107139
 30
0.0
 10
1121.995648205429
 20
-451.875902913269
 30
0.0
 10
1121.995648205429
 20
-460.1858232152484
 30
0.0
  0
POLYLINE
  5
D8
330
75
100
AcDbEntity
  8
\U+30EC\U+30A4\U+30E4\U+30FC 1
 62
   250
420
  2234132
370
    13
100
AcDb2dPolyline
 66
     1
 10
0.0
 20
0.0
 30
0.0
  0
VERTEX
  5
D9
330
D8
100
AcDbEntity
  8
\U+30EC\U+30A4\U+30E4\U+30FC 1
 62
   250
420
  2234132
370
    13
100
AcDbVertex
100
AcDb2dVertex
 10
-212.8185024296527
 20
-894.8927369419397
 30
0.0
  0
VERTEX
  5
DA
330
D8
100
AcDbEntity
  8
\U+30EC\U+30A4\U+30E4\U+30FC 1
 62
   250
420
  2234132
370
    13
100
AcDbVertex
100
AcDb2dVertex
 10
768.1289868986362
 20
-894.8927369419397
 30
0.0
  0
SEQEND
  5
DB
330
D8
100
AcDbEntity
  8
\U+30EC\U+30A4\U+30E4\U+30FC 1
370
    13
  0
ENDBLK
  5
78
330
75
100
AcDbEntity
  8
0
100
AcDbBlockEnd
  0
ENDSEC
  0
SECTION
  2
ENTITIES
  0
INSERT
  5
3D
330
1F
100
AcDbEntity
  8
\U+30EC\U+30A4\U+30E4\U+30FC 1
100
AcDbBlockReference
  2
block 2
 10
0.0
 20
0.0
 30
0.0
  0
INSERT
  5
76
330
1F
100
AcDbEntity
  8
\U+30EC\U+30A4\U+30E4\U+30FC 1
100
AcDbBlockReference
  2
block 5
 10
0.0
 20
0.0
 30
0.0
  0
ENDSEC
  0
SECTION
  2
OBJECTS
  0
DICTIONARY
  5
C
330
0
100
AcDbDictionary
281
     1
  3
ACAD_GROUP
350
D
  3
ACAD_LAYOUT
350
1A
  3
ACAD_MLINESTYLE
350
17
  3
ACAD_PLOTSETTINGS
350
19
  3
ACAD_PLOTSTYLENAME
350
E
  3
ACAD_TABLESTYLE
350
DC
  3
ACAD_VISUALSTYLE
350
2A
  0
DICTIONARY
  5
D
102
{ACAD_REACTORS
330
C
102
}
330
C
100
AcDbDictionary
281
     1
  0
DICTIONARY
  5
1A
102
{ACAD_REACTORS
330
C
102
}
330
C
100
AcDbDictionary
281
     1
  3
Layout1
350
1E
  3
Layout2
350
26
  3
Model
350
22
  0
DICTIONARY
  5
17
102
{ACAD_REACTORS
330
C
102
}
330
C
100
AcDbDictionary
281
     1
  3
Standard
350
18
  0
DICTIONARY
  5
19
102
{ACAD_REACTORS
330
C
102
}
330
C
100
AcDbDictionary
281
     1
  0
ACDBDICTIONARYWDFLT
  5
E
102
{ACAD_REACTORS
330
C
102
}
330
C
100
AcDbDictionary
281
     1
  3
Normal
350
F
100
AcDbDictionaryWithDefault
340
F
  0
DICTIONARY
  5
DC
102
{ACAD_REACTORS
330
C
102
}
330
C
100
AcDbDictionary
281
     1
  0
DICTIONARY
  5
2A
102
{ACAD_REACTORS
330
C
102
}
330
C
100
AcDbDictionary
281
     1
  3
2dWireframe
350
2F
  3
3D Hidden
350
31
  3
3dWireframe
350
30
  3
Basic
350
32
  3
Brighten
350
36
  3
ColorChange
350
3A
  3
Conceptual
350
34
  3
Dim
350
35
  3
Facepattern
350
39
  3
Flat
350
2B
  3
FlatWithEdges
350
2C
  3
Gouraud
350
2D
  3
GouraudWithEdges
350
2E
  3
Linepattern
350
38
  3
Realistic
350
33
  3
Thicken
350
37
  0
LAYOUT
  5
1E
102
{ACAD_REACTORS
330
1A
102
}
330
1A
100
AcDbPlotSettings
  1

  2
none_device
  4

  6

 40
0.0
 41
0.0
 42
0.0
 43
0.0
 44
0.0
 45
0.0
 46
0.0
 47
0.0
 48
0.0
 49
0.0
140
0.0
141
0.0
142
1.0
143
1.0
 70
   688
 72
     0
 73
     0
 74
     5
  7

 75
    16
 76
     0
 77
     2
 78
   300
147
1.0
148
0.0
149
0.0
100
AcDbLayout
  1
Layout1
 70
     1
 71
     1
 10
0.0
 20
0.0
 11
12.0
 21
9.0
 12
0.0
 22
0.0
 32
0.0
 14
1.000000000000000E+20
 24
1.000000000000000E+20
 34
1.000000000000000E+20
 15
-1.000000000000000E+20
 25
-1.000000000000000E+20
 35
-1.000000000000000E+20
146
0.0
 13
0.0
 23
0.0
 33
0.0
 16
1.0
 26
0.0
 36
0.0
 17
0.0
 27
1.0
 37
0.0
 76
     0
330
1B
  0
LAYOUT
  5
26
102
{ACAD_REACTORS
330
1A
102
}
330
1A
100
AcDbPlotSettings
  1

  2
none_device
  4

  6

 40
0.0
 41
0.0
 42
0.0
 43
0.0
 44
0.0
 45
0.0
 46
0.0
 47
0.0
 48
0.0
 49
0.0
140
0.0
141
0.0
142
1.0
143
1.0
 70
   688
 72
     0
 73
     0
 74
     5
  7

 75
    16
 76
     0
 77
     2
 78
   300
147
1.0
148
0.0
149
0.0
100
AcDbLayout
  1
Layout2
 70
     1
 71
     2
 10
0.0
 20
0.0
 11
0.0
 21
0.0
 12
0.0
 22
0.0
 32
0.0
 14
0.0
 24
0.0
 34
0.0
 15
0.0
 25
0.0
 35
0.0
146
0.0
 13
0.0
 23
0.0
 33
0.0
 16
1.0
 26
0.0
 36
0.0
 17
0.0
 27
1.0
 37
0.0
 76
     0
330
23
  0
LAYOUT
  5
22
102
{ACAD_REACTORS
330
1A
102
}
330
1A
100
AcDbPlotSettings
  1

  2
none_device
  4

  6

 40
0.0
 41
0.0
 42
0.0
 43
0.0
 44
0.0
 45
0.0
 46
0.0
 47
0.0
 48
0.0
 49
0.0
140
0.0
141
0.0
142
1.0
143
1.0
 70
  1712
 72
     0
 73
     0
 74
     0
  7

 75
     0
 76
     0
 77
     2
 78
   300
147
1.0
148
0.0
149
0.0
100
AcDbLayout
  1
Model
 70
     1
 71
     0
 10
0.0
 20
0.0
 11
12.0
 21
9.0
 12
0.0
 22
0.0
 32
0.0
 14
1.000000000000000E+20
 24
1.000000000000000E+20
 34
1.000000000000000E+20
 15
-1.000000000000000E+20
 25
-1.000000000000000E+20
 35
-1.000000000000000E+20
146
0.0
 13
0.0
 23
0.0
 33
0.0
 16
1.0
 26
0.0
 36
0.0
 17
0.0
 27
1.0
 37
0.0
 76
     0
330
1F
331
29
  0
MLINESTYLE
  5
18
102
{ACAD_REACTORS
330
17
102
}
330
17
100
AcDbMlineStyle
  2
Standard
 70
     0
  3

 62
   256
 51
90.0
 52
90.0
 71
     2
 49
0.5
 62
   256
  6
BYLAYER
 49
-0.5
 62
   256
  6
BYLAYER
  0
ACDBPLACEHOLDER
  5
F
102
{ACAD_REACTORS
330
E
102
}
330
E
  0
VISUALSTYLE
  5
2F
102
{ACAD_REACTORS
330
2A
102
}
330
2A
100
AcDbVisualStyle
  2
2dWireframe
 70
     4
 71
     0
 72
     2
 73
     0
 90
        0
 40
-0.6
 41
-30.0
 62
     5
 63
     7
421
 16777215
 74
     1
 91
        4
 64
     7
 65
   257
 75
     1
175
     1
 42
1.0
 92
        0
 66
   257
 43
1.0
 76
     1
 77
     6
 78
     2
 67
     7
 79
     5
170
     0
171
     0
290
     0
174
     0
 93
        1
 44
0.0
173
     0
291
     0
 45
0.0
1001
ACAD
1000
AcDbSavedByObjectVersion
1070
     0
  0
VISUALSTYLE
  5
31
102
{ACAD_REACTORS
330
2A
102
}
330
2A
100
AcDbVisualStyle
  2
3D Hidden
 70
     6
 71
     1
 72
     2
 73
     2
 90
        0
 40
-0.6
 41
-30.0
 62
     5
 63
     7
421
 16777215
 74
     2
 91
        2
 64
     7
 65
   257
 75
     2
175
     1
 42
40.0
 92
        0
 66
   257
 43
1.0
 76
     1
 77
     6
 78
     2
 67
     7
 79
     3
170
     0
171
     0
290
     0
174
     0
 93
        1
 44
0.0
173
     0
291
     0
 45
0.0
1001
ACAD
1000
AcDbSavedByObjectVersion
1070
     0
  0
VISUALSTYLE
  5
30
102
{ACAD_REACTORS
330
2A
102
}
330
2A
100
AcDbVisualStyle
  2
3dWireframe
 70
     5
 71
     0
 72
     2
 73
     0
 90
        0
 40
-0.6
 41
-30.0
 62
     5
 63
     7
421
 16777215
 74
     1
 91
        4
 64
     7
 65
   257
 75
     1
175
     1
 42
1.0
 92
        0
 66
   257
 43
1.0
 76
     1
 77
     6
 78
     2
 67
     7
 79
     5
170
     0
171
     0
290
     0
174
     0
 93
        1
 44
0.0
173
     0
291
     0
 45
0.0
1001
ACAD
1000
AcDbSavedByObjectVersion
1070
     0
  0
VISUALSTYLE
  5
32
102
{ACAD_REACTORS
330
2A
102
}
330
2A
100
AcDbVisualStyle
  2
Basic
 70
     7
 71
     1
 72
     0
 73
     1
 90
        0
 40
-0.6
 41
-30.0
 62
     5
 63
     7
421
 16777215
 74
     0
 91
        4
 64
     7
 65
   257
 75
     1
175
     1
 42
1.0
 92
        8
 66
     7
 43
1.0
 76
     1
 77
     6
 78
     2
 67
     7
 79
     5
170
     0
171
     0
290
     0
174
     0
 93
        1
 44
0.0
173
     0
291
     1
 45
0.0
1001
ACAD
1000
AcDbSavedByObjectVersion
1070
     0
  0
VISUALSTYLE
  5
36
102
{ACAD_REACTORS
330
2A
102
}
330
2A
100
AcDbVisualStyle
  2
Brighten
 70
    12
 71
     2
 72
     2
 73
     0
 90
        0
 40
-0.6
 41
-30.0
 62
     5
 63
     7
421
 16777215
 74
     1
 91
        4
 64
     7
 65
   257
 75
     1
175
     1
 42
1.0
 92
        8
 66
     7
 43
1.0
 76
     1
 77
     6
 78
     2
 67
     7
 79
     5
170
     0
171
     0
290
     0
174
     0
 93
        1
 44
50.0
173
     0
291
     1
 45
0.0
1001
ACAD
1000
AcDbSavedByObjectVersion
1070
     0
  0
VISUALSTYLE
  5
3A
102
{ACAD_REACTORS
330
2A
102
}
330
2A
100
AcDbVisualStyle
  2
ColorChange
 70
    16
 71
     2
 72
     2
 73
     3
 90
        0
 40
-0.6
 41
-30.0
 62
     5
 63
     8
421
  8421504
 74
     1
 91
        4
 64
     7
 65
   257
 75
     1
175
     1
 42
1.0
 92
        8
 66
     8
424
  8421504
 43
1.0
 76
     1
 77
     6
 78
     2
 67
     7
 79
     5
170
     0
171
     0
290
     0
174
     0
 93
        1
 44
0.0
173
     0
291
     1
 45
0.0
1001
ACAD
1000
AcDbSavedByObjectVersion
1070
     0
  0
VISUALSTYLE
  5
34
102
{ACAD_REACTORS
330
2A
102
}
330
2A
100
AcDbVisualStyle
  2
Conceptual
 70
     9
 71
     3
 72
     2
 73
     0
 90
        0
 40
-0.6
 41
-30.0
 62
     5
 63
     7
421
 16777215
 74
     2
 91
        2
 64
     7
 65
   257
 75
     1
175
     1
 42
40.0
 92
        8
 66
     7
 43
1.0
 76
     1
 77
     6
 78
     2
 67
     7
 79
     3
170
     0
171
     0
290
     0
174
     0
 93
        1
 44
0.0
173
     0
291
     0
 45
0.0
1001
ACAD
1000
AcDbSavedByObjectVersion
1070
     0
  0
VISUALSTYLE
  5
35
102
{ACAD_REACTORS
330
2A
102
}
330
2A
100
AcDbVisualStyle
  2
Dim
 70
    11
 71
     2
 72
     2
 73
     0
 90
        0
 40
-0.6
 41
-30.0
 62
     5
 63
     7
421
 16777215
 74
     1
 91
        4
 64
     7
 65
   257
 75
     1
175
     1
 42
1.0
 92
        8
 66
     7
 43
1.0
 76
     1
 77
     6
 78
     2
 67
     7
 79
     5
170
     0
171
     0
290
     0
174
     0
 93
        1
 44
-50.0
173
     0
291
     1
 45
0.0
1001
ACAD
1000
AcDbSavedByObjectVersion
1070
     0
  0
VISUALSTYLE
  5
39
102
{ACAD_REACTORS
330
2A
102
}
330
2A
100
AcDbVisualStyle
  2
Facepattern
 70
    15
 71
     2
 72
     2
 73
     0
 90
        0
 40
-0.6
 41
-30.0
 62
     5
 63
     7
421
 16777215
 74
     1
 91
        4
 64
     7
 65
   257
 75
     1
175
     1
 42
1.0
 92
        8
 66
     7
 43
1.0
 76
     1
 77
     6
 78
     2
 67
     7
 79
     5
170
     0
171
     0
290
     0
174
     0
 93
        1
 44
0.0
173
     0
291
     1
 45
0.0
1001
ACAD
1000
AcDbSavedByObjectVersion
1070
     0
  0
VISUALSTYLE
  5
2B
102
{ACAD_REACTORS
330
2A
102
}
330
2A
100
AcDbVisualStyle
  2
Flat
 70
     0
 71
     2
 72
     1
 73
     1
 90
        2
 40
-0.6
 41
30.0
 62
     5
 63
     7
421
 16777215
 74
     0
 91
        4
 64
     7
 65
   257
 75
     1
175
     1
 42
1.0
 92
        8
 66
     7
 43
1.0
 76
     1
 77
     6
 78
     2
 67
     7
 79
     5
170
     0
171
     0
290
     0
174
     0
 93
       13
 44
0.0
173
     0
291
     1
 45
0.0
1001
ACAD
1000
AcDbSavedByObjectVersion
1070
     0
  0
VISUALSTYLE
  5
2C
102
{ACAD_REACTORS
330
2A
102
}
330
2A
100
AcDbVisualStyle
  2
FlatWithEdges
 70
     1
 71
     2
 72
     1
 73
     1
 90
        2
 40
-0.6
 41
30.0
 62
     5
 63
     7
421
 16777215
 74
     1
 91
        4
 64
     7
 65
   257
 75
     1
175
     1
 42
1.0
 92
        0
 66
   257
 43
1.0
 76
     1
 77
     6
 78
     2
 67
     7
 79
     5
170
     0
171
     0
290
     0
174
     0
 93
       13
 44
0.0
173
     0
291
     1
 45
0.0
1001
ACAD
1000
AcDbSavedByObjectVersion
1070
     0
  0
VISUALSTYLE
  5
2D
102
{ACAD_REACTORS
330
2A
102
}
330
2A
100
AcDbVisualStyle
  2
Gouraud
 70
     2
 71
     2
 72
     2
 73
     1
 90
        2
 40
-0.6
 41
30.0
 62
     5
 63
     7
421
 16777215
 74
     0
 91
        4
 64
     7
 65
   257
 75
     1
175
     1
 42
1.0
 92
        0
 66
     7
 43
1.0
 76
     1
 77
     6
 78
     2
 67
     7
 79
     5
170
     0
171
     0
290
     0
174
     0
 93
       13
 44
0.0
173
     0
291
     1
 45
0.0
1001
ACAD
1000
AcDbSavedByObjectVersion
1070
     0
  0
VISUALSTYLE
  5
2E
102
{ACAD_REACTORS
330
2A
102
}
330
2A
100
AcDbVisualStyle
  2
GouraudWithEdges
 70
     3
 71
     2
 72
     2
 73
     1
 90
        2
 40
-0.6
 41
30.0
 62
     5
 63
     7
421
 16777215
 74
     1
 91
        4
 64
     7
 65
   257
 75
     1
175
     1
 42
1.0
 92
        0
 66
   257
 43
1.0
 76
     1
 77
     6
 78
     2
 67
     7
 79
     5
170
     0
171
     0
290
     0
174
     0
 93
       13
 44
0.0
173
     0
291
     1
 45
0.0
1001
ACAD
1000
AcDbSavedByObjectVersion
1070
     0
  0
VISUALSTYLE
  5
38
102
{ACAD_REACTORS
330
2A
102
}
330
2A
100
AcDbVisualStyle
  2
Linepattern
 70
    14
 71
     2
 72
     2
 73
     0
 90
        0
 40
-0.6
 41
-30.0
 62
     5
 63
     7
421
 16777215
 74
     1
 91
        4
 64
     7
 65
   257
 75
     7
175
     7
 42
1.0
 92
        8
 66
     7
 43
1.0
 76
     1
 77
     6
 78
     2
 67
     7
 79
     5
170
     0
171
     0
290
     0
174
     0
 93
        1
 44
0.0
173
     0
291
     1
 45
0.0
1001
ACAD
1000
AcDbSavedByObjectVersion
1070
     0
  0
VISUALSTYLE
  5
33
102
{ACAD_REACTORS
330
2A
102
}
330
2A
100
AcDbVisualStyle
  2
Realistic
 70
     8
 71
     2
 72
     2
 73
     0
 90
        0
 40
-0.6
 41
-30.0
 62
     5
 63
     7
421
 16777215
 74
     1
 91
        0
 64
     7
 65
   257
 75
     1
175
     1
 42
1.0
 92
        8
 66
     8
424
  7895160
 43
1.0
 76
     1
 77
     6
 78
     2
 67
     7
 79
     5
170
     0
171
     0
290
     0
174
     0
 93
       13
 44
0.0
173
     0
291
     0
 45
0.0
1001
ACAD
1000
AcDbSavedByObjectVersion
1070
     0
  0
VISUALSTYLE
  5
37
102
{ACAD_REACTORS
330
2A
102
}
330
2A
100
AcDbVisualStyle
  2
Thicken
 70
    13
 71
     2
 72
     2
 73
     0
 90
        0
 40
-0.6
 41
-30.0
 62
     5
 63
     7
421
 16777215
 74
     1
 91
        4
 64
     7
 65
   257
 75
     1
175
     1
 42
1.0
 92
       12
 66
     7
 43
1.0
 76
     1
 77
     6
 78
     2
 67
     7
 79
     5
170
     0
171
     0
290
     0
174
     0
 93
        1
 44
0.0
173
     0
291
     1
 45
0.0
1001
ACAD
1000
AcDbSavedByObjectVersion
1070
     0
  0
ENDSEC
  0
EOF
