  0
SECTION
  2
HEADER
  9
$ACADVER
  1
AC1018
  9
$ACADMAINTVER
 70
     0
  9
$DWGCODEPAGE
  3
ASCII
  9
$INSBASE
 10
0.0
 20
0.0
 30
0.0
  9
$EXTMIN
 10
1.000000000000000E+20
 20
1.000000000000000E+20
 30
1.000000000000000E+20
  9
$EXTMAX
 10
-1.000000000000000E+20
 20
-1.000000000000000E+20
 30
-1.000000000000000E+20
  9
$LIMMIN
 10
0.0
 20
0.0
  9
$LIMMAX
 10
12.0
 20
9.0
  9
$ORTHOMODE
 70
     0
  9
$REGENMODE
 70
     1
  9
$FILLMODE
 70
     1
  9
$QTEXTMODE
 70
     0
  9
$MIRRTEXT
 70
     1
  9
$LTSCALE
 40
1.0
  9
$ATTMODE
 70
     1
  9
$TEXTSIZE
 40
0.2
  9
$TRACEWID
 40
0.05
  9
$TEXTSTYLE
  7
Standard
  9
$CLAYER
  8
0
  9
$CELTYPE
  6
ByLayer
  9
$CECOLOR
 62
   256
  9
$CELTSCALE
 40
1.0
  9
$DISPSILH
 70
     0
  9
$DIMSCALE
 40
1.0
  9
$DIMASZ
 40
0.18
  9
$DIMEXO
 40
0.0625
  9
$DIMDLI
 40
0.38
  9
$DIMRND
 40
0.0
  9
$DIMDLE
 40
0.0
  9
$DIMEXE
 40
0.18
  9
$DIMTP
 40
0.0
  9
$DIMTM
 40
0.0
  9
$DIMTXT
 40
0.18
  9
$DIMCEN
 40
0.09
  9
$DIMTSZ
 40
0.0
  9
$DIMTOL
 70
     0
  9
$DIMLIM
 70
     0
  9
$DIMTIH
 70
     1
  9
$DIMTOH
 70
     1
  9
$DIMSE1
 70
     0
  9
$DIMSE2
 70
     0
  9
$DIMTAD
 70
     0
  9
$DIMZIN
 70
     0
  9
$DIMBLK
  1

  9
$DIMASO
 70
     1
  9
$DIMSHO
 70
     1
  9
$DIMPOST
  1

  9
$DIMAPOST
  1

  9
$DIMALT
 70
     0
  9
$DIMALTD
 70
     2
  9
$DIMALTF
 40
25.4
  9
$DIMLFAC
 40
1.0
  9
$DIMTOFL
 70
     0
  9
$DIMTVP
 40
0.0
  9
$DIMTIX
 70
     0
  9
$DIMSOXD
 70
     0
  9
$DIMSAH
 70
     0
  9
$DIMBLK1
  1

  9
$DIMBLK2
  1

  9
$DIMSTYLE
  2
Standard
  9
$DIMCLRD
 70
     0
  9
$DIMCLRE
 70
     0
  9
$DIMCLRT
 70
     0
  9
$DIMTFAC
 40
1.0
  9
$DIMGAP
 40
0.09
  9
$DIMJUST
 70
     0
  9
$DIMSD1
 70
     0
  9
$DIMSD2
 70
     0
  9
$DIMTOLJ
 70
     1
  9
$DIMTZIN
 70
     0
  9
$DIMALTZ
 70
     0
  9
$DIMALTTZ
 70
     0
  9
$DIMUPT
 70
     0
  9
$DIMDEC
 70
     4
  9
$DIMTDEC
 70
     4
  9
$DIMALTU
 70
     2
  9
$DIMALTTD
 70
     2
  9
$DIMTXSTY
  7
Standard
  9
$DIMAUNIT
 70
     0
  9
$DIMADEC
 70
     0
  9
$DIMALTRND
 40
0.0
  9
$DIMAZIN
 70
     0
  9
$DIMDSEP
 70
    46
  9
$DIMATFIT
 70
     3
  9
$DIMFRAC
 70
     0
  9
$DIMLDRBLK
  1

  9
$DIMLUNIT
 70
     2
  9
$DIMLWD
 70
    -2
  9
$DIMLWE
 70
    -2
  9
$DIMTMOVE
 70
     0
  9
$LUNITS
 70
     2
  9
$LUPREC
 70
     4
  9
$SKETCHINC
 40
0.1
  9
$FILLETRAD
 40
0.5
  9
$AUNITS
 70
     0
  9
$AUPREC
 70
     0
  9
$MENU
  1
.
  9
$ELEVATION
 40
0.0
  9
$PELEVATION
 40
0.0
  9
$THICKNESS
 40
0.0
  9
$LIMCHECK
 70
     0
  9
$CHAMFERA
 40
0.5
  9
$CHAMFERB
 40
0.5
  9
$CHAMFERC
 40
1.0
  9
$CHAMFERD
 40
0.0
  9
$SKPOLY
 70
     0
  9
$TDCREATE
 40
2456828.727293623
  9
$TDUCREATE
 40
2456828.352293623
  9
$TDUPDATE
 40
2456828.727293634
  9
$TDUUPDATE
 40
2456828.352293634
  9
$TDINDWG
 40
0.0000000116
  9
$TDUSRTIMER
 40
0.0000000116
  9
$USRTIMER
 70
     1
  9
$ANGBASE
 50
0.0
  9
$ANGDIR
 70
     0
  9
$PDMODE
 70
     0
  9
$PDSIZE
 40
0.0
  9
$PLINEWID
 40
0.0
  9
$SPLFRAME
 70
     0
  9
$SPLINETYPE
 70
     6
  9
$SPLINESEGS
 70
     8
  9
$HANDSEED
  5
191
  9
$SURFTAB1
 70
     6
  9
$SURFTAB2
 70
     6
  9
$SURFTYPE
 70
     6
  9
$SURFU
 70
     6
  9
$SURFV
 70
     6
  9
$UCSBASE
  2

  9
$UCSNAME
  2

  9
$UCSORG
 10
0.0
 20
0.0
 30
0.0
  9
$UCSXDIR
 10
1.0
 20
0.0
 30
0.0
  9
$UCSYDIR
 10
0.0
 20
1.0
 30
0.0
  9
$UCSORTHOREF
  2

  9
$UCSORTHOVIEW
 70
     0
  9
$UCSORGTOP
 10
0.0
 20
0.0
 30
0.0
  9
$UCSORGBOTTOM
 10
0.0
 20
0.0
 30
0.0
  9
$UCSORGLEFT
 10
0.0
 20
0.0
 30
0.0
  9
$UCSORGRIGHT
 10
0.0
 20
0.0
 30
0.0
  9
$UCSORGFRONT
 10
0.0
 20
0.0
 30
0.0
  9
$UCSORGBACK
 10
0.0
 20
0.0
 30
0.0
  9
$PUCSBASE
  2

  9
$PUCSNAME
  2

  9
$PUCSORG
 10
0.0
 20
0.0
 30
0.0
  9
$PUCSXDIR
 10
1.0
 20
0.0
 30
0.0
  9
$PUCSYDIR
 10
0.0
 20
1.0
 30
0.0
  9
$PUCSORTHOREF
  2

  9
$PUCSORTHOVIEW
 70
     0
  9
$PUCSORGTOP
 10
0.0
 20
0.0
 30
0.0
  9
$PUCSORGBOTTOM
 10
0.0
 20
0.0
 30
0.0
  9
$PUCSORGLEFT
 10
0.0
 20
0.0
 30
0.0
  9
$PUCSORGRIGHT
 10
0.0
 20
0.0
 30
0.0
  9
$PUCSORGFRONT
 10
0.0
 20
0.0
 30
0.0
  9
$PUCSORGBACK
 10
0.0
 20
0.0
 30
0.0
  9
$USERI1
 70
     0
  9
$USERI2
 70
     0
  9
$USERI3
 70
     0
  9
$USERI4
 70
     0
  9
$USERI5
 70
     0
  9
$USERR1
 40
0.0
  9
$USERR2
 40
0.0
  9
$USERR3
 40
0.0
  9
$USERR4
 40
0.0
  9
$USERR5
 40
0.0
  9
$WORLDVIEW
 70
     1
  9
$SHADEDGE
 70
     3
  9
$SHADEDIF
 70
    70
  9
$TILEMODE
 70
     1
  9
$MAXACTVP
 70
    64
  9
$PINSBASE
 10
0.0
 20
0.0
 30
0.0
  9
$PLIMCHECK
 70
     0
  9
$PEXTMIN
 10
1.000000000000000E+20
 20
1.000000000000000E+20
 30
1.000000000000000E+20
  9
$PEXTMAX
 10
-1.000000000000000E+20
 20
-1.000000000000000E+20
 30
-1.000000000000000E+20
  9
$PLIMMIN
 10
0.0
 20
0.0
  9
$PLIMMAX
 10
12.0
 20
9.0
  9
$UNITMODE
 70
     0
  9
$VISRETAIN
 70
     1
  9
$PLINEGEN
 70
     0
  9
$PSLTSCALE
 70
     1
  9
$TREEDEPTH
 70
  3020
  9
$CMLSTYLE
  2
Standard
  9
$CMLJUST
 70
     0
  9
$CMLSCALE
 40
1.0
  9
$PROXYGRAPHICS
 70
     1
  9
$MEASUREMENT
 70
     0
  9
$CELWEIGHT
370
    -1
  9
$ENDCAPS
280
     0
  9
$JOINSTYLE
280
     0
  9
$LWDISPLAY
290
     1
  9
$INSUNITS
 70
     1
  9
$HYPERLINKBASE
  1

  9
$STYLESHEET
  1

  9
$XEDIT
290
     1
  9
$CEPSNTYPE
380
     0
  9
$PSTYLEMODE
290
     1
  9
$FINGERPRINTGUID
  2
{092E74A3-035A-4499-8CA6-3E4485671698}
  9
$VERSIONGUID
  2
{FAEB1C32-E019-11D5-929B-00C0DF256EC4}
  9
$EXTNAMES
290
     1
  9
$PSVPSCALE
 40
0.0
  9
$OLESTARTUP
290
     0
  9
$SORTENTS
280
   127
  9
$INDEXCTL
280
     0
  9
$HIDETEXT
280
     1
  9
$XCLIPFRAME
290
     0
  9
$HALOGAP
280
     0
  9
$OBSCOLOR
 70
   257
  9
$OBSLTYPE
280
     0
  9
$INTERSECTIONDISPLAY
280
     0
  9
$INTERSECTIONCOLOR
 70
   257
  9
$DIMASSOC
280
     2
  9
$PROJECTNAME
  1

  0
ENDSEC
  0
SECTION
  2
CLASSES
  0
CLASS
  1
ACDBDICTIONARYWDFLT
  2
AcDbDictionaryWithDefault
  3
ObjectDBX Classes
 90
        0
 91
        3
280
     0
281
     0
  0
CLASS
  1
VISUALSTYLE
  2
AcDbVisualStyle
  3
ObjectDBX Classes
 90
     4095
 91
        3
280
     0
281
     0
  0
ENDSEC
  0
SECTION
  2
TABLES
  0
TABLE
  2
VPORT
  5
8
330
0
100
AcDbSymbolTable
 70
     1
  0
VPORT
  5
29
330
8
100
AcDbSymbolTableRecord
100
AcDbViewportTableRecord
  2
*Active
 70
     0
 10
0.0
 20
0.0
 11
1.0
 21
1.0
 12
0.0
 22
0.0
 13
0.0
 23
0.0
 14
0.5
 24
0.5
 15
0.5
 25
0.5
 16
0.0
 26
0.0
 36
1.0
 17
426.7203158492966
 27
598.9155174287242
 37
0.0
 40
2034.629904795049
 41
0.8973681399451492
 42
50.0
 43
0.0
 44
0.0
 50
0.0
 51
0.0
 71
     0
 72
   100
 73
     1
 74
     3
 75
     0
 76
     0
 77
     0
 78
     0
281
     0
 65
     1
110
0.0
120
0.0
130
0.0
111
1.0
121
0.0
131
0.0
112
0.0
122
1.0
132
0.0
 79
     0
146
0.0
  0
ENDTAB
  0
TABLE
  2
LTYPE
  5
5
330
0
100
AcDbSymbolTable
 70
     5
  0
LTYPE
  5
14
330
5
100
AcDbSymbolTableRecord
100
AcDbLinetypeTableRecord
  2
ByBlock
 70
     0
  3

 72
    65
 73
     0
 40
0.0
  0
LTYPE
  5
15
330
5
100
AcDbSymbolTableRecord
100
AcDbLinetypeTableRecord
  2
ByLayer
 70
     0
  3

 72
    65
 73
     0
 40
0.0
  0
LTYPE
  5
16
330
5
100
AcDbSymbolTableRecord
100
AcDbLinetypeTableRecord
  2
Continuous
 70
     0
  3
Solid line
 72
    65
 73
     0
 40
0.0
  0
LTYPE
  5
10F
330
5
100
AcDbSymbolTableRecord
100
AcDbLinetypeTableRecord
  2
AI-Linetype-1
 70
     0
  3
Adobe Illustrator Linetype No. 1
 72
    65
 73
     2
 40
6.350004187474984
 49
3.175002093737492
 74
     0
 49
-3.175002093737492
 74
     0
  0
LTYPE
  5
11A
330
5
100
AcDbSymbolTableRecord
100
AcDbLinetypeTableRecord
  2
AI-Linetype-2
 70
     0
  3
Adobe Illustrator Linetype No. 2
 72
    65
 73
     2
 40
6.350004187474984
 49
3.175002093737492
 74
     0
 49
-3.175002093737492
 74
     0
  0
LTYPE
  5
12C
330
5
100
AcDbSymbolTableRecord
100
AcDbLinetypeTableRecord
  2
AI-Linetype-3
 70
     0
  3
Adobe Illustrator Linetype No. 3
 72
    65
 73
     2
 40
6.350004187474984
 49
3.175002093737492
 74
     0
 49
-3.175002093737492
 74
     0
  0
LTYPE
  5
12F
330
5
100
AcDbSymbolTableRecord
100
AcDbLinetypeTableRecord
  2
AI-Linetype-4
 70
     0
  3
Adobe Illustrator Linetype No. 4
 72
    65
 73
     2
 40
6.350004187474984
 49
3.175002093737492
 74
     0
 49
-3.175002093737492
 74
     0
  0
ENDTAB
  0
TABLE
  2
LAYER
  5
2
330
0
100
AcDbSymbolTable
 70
     2
  0
LAYER
  5
10
330
2
100
AcDbSymbolTableRecord
100
AcDbLayerTableRecord
  2
0
 70
     0
 62
     7
  6
Continuous
370
    -3
390
F
  0
LAYER
  5
3B
330
2
100
AcDbSymbolTableRecord
100
AcDbLayerTableRecord
  2
\U+30EC\U+30A4\U+30E4\U+30FC 2
 70
     0
 62
     7
  6
Continuous
370
    -3
390
F
  0
ENDTAB
  0
TABLE
  2
STYLE
  5
3
330
0
100
AcDbSymbolTable
 70
     1
  0
STYLE
  5
11
330
3
100
AcDbSymbolTableRecord
100
AcDbTextStyleTableRecord
  2
Standard
 70
     0
 40
0.0
 41
1.0
 50
0.0
 71
     0
 42
0.2
  3
txt
  4

  0
ENDTAB
  0
TABLE
  2
VIEW
  5
6
330
0
100
AcDbSymbolTable
 70
     0
  0
ENDTAB
  0
TABLE
  2
UCS
  5
7
330
0
100
AcDbSymbolTable
 70
     0
  0
ENDTAB
  0
TABLE
  2
APPID
  5
9
330
0
100
AcDbSymbolTable
 70
     1
  0
APPID
  5
12
330
9
100
AcDbSymbolTableRecord
100
AcDbRegAppTableRecord
  2
ACAD
 70
     0
  0
ENDTAB
  0
TABLE
  2
DIMSTYLE
  5
A
330
0
100
AcDbSymbolTable
 70
     1
100
AcDbDimStyleTable
  0
DIMSTYLE
105
27
330
A
100
AcDbSymbolTableRecord
100
AcDbDimStyleTableRecord
  2
Standard
 70
     0
340
11
  0
ENDTAB
  0
TABLE
  2
BLOCK_RECORD
  5
1
330
0
100
AcDbSymbolTable
 70
     6
  0
BLOCK_RECORD
  5
1F
330
1
100
AcDbSymbolTableRecord
100
AcDbBlockTableRecord
  2
*Model_Space
340
22
  0
BLOCK_RECORD
  5
1B
330
1
100
AcDbSymbolTableRecord
100
AcDbBlockTableRecord
  2
*Paper_Space
340
1E
  0
BLOCK_RECORD
  5
23
330
1
100
AcDbSymbolTableRecord
100
AcDbBlockTableRecord
  2
*Paper_Space0
340
26
  0
BLOCK_RECORD
  5
44
330
1
100
AcDbSymbolTableRecord
100
AcDbBlockTableRecord
  2
block 2
340
0
102
{BLKREFS
331
45
102
}
  0
BLOCK_RECORD
  5
60
330
1
100
AcDbSymbolTableRecord
100
AcDbBlockTableRecord
  2
block 3
340
0
102
{BLKREFS
331
61
102
}
  0
BLOCK_RECORD
  5
66
330
1
100
AcDbSymbolTableRecord
100
AcDbBlockTableRecord
  2
block 4
340
0
102
{BLKREFS
331
67
102
}
  0
BLOCK_RECORD
  5
AD
330
1
100
AcDbSymbolTableRecord
100
AcDbBlockTableRecord
  2
block 5
340
0
102
{BLKREFS
331
AE
102
}
  0
BLOCK_RECORD
  5
B3
330
1
100
AcDbSymbolTableRecord
100
AcDbBlockTableRecord
  2
block 6
340
0
102
{BLKREFS
331
B4
102
}
  0
ENDTAB
  0
ENDSEC
  0
SECTION
  2
BLOCKS
  0
BLOCK
  5
20
330
1F
100
AcDbEntity
  8
0
100
AcDbBlockBegin
  2
*Model_Space
 70
     0
 71
     0
 10
0.0
 20
0.0
 30
0.0
  3
*Model_Space
  1

  0
ENDBLK
  5
21
330
1F
100
AcDbEntity
  8
0
100
AcDbBlockEnd
  0
BLOCK
  5
1C
330
1B
100
AcDbEntity
 67
     1
  8
0
100
AcDbBlockBegin
  2
*Paper_Space
 70
     0
 71
     0
 10
0.0
 20
0.0
 30
0.0
  3
*Paper_Space
  1

  0
ENDBLK
  5
1D
330
1B
100
AcDbEntity
 67
     1
  8
0
100
AcDbBlockEnd
  0
BLOCK
  5
24
330
23
100
AcDbEntity
  8
0
100
AcDbBlockBegin
  2
*Paper_Space0
 70
     0
 71
     0
 10
0.0
 20
0.0
 30
0.0
  3
*Paper_Space0
  1

  0
ENDBLK
  5
25
330
23
100
AcDbEntity
  8
0
100
AcDbBlockEnd
  0
BLOCK
  5
46
330
44
100
AcDbEntity
  8
0
100
AcDbBlockBegin
  2
block 2
 70
     0
 71
     0
 10
0.0
 20
0.0
 30
0.0
  3
block 2
  1

  0
POLYLINE
  5
48
330
44
100
AcDbEntity
  8
\U+30EC\U+30A4\U+30E4\U+30FC 2
 62
   250
420
  2234132
370
    18
100
AcDb2dPolyline
 66
     1
 10
0.0
 20
0.0
 30
0.0
  0
VERTEX
  5
49
330
48
100
AcDbEntity
  8
\U+30EC\U+30A4\U+30E4\U+30FC 2
 62
   250
420
  2234132
370
    18
100
AcDbVertex
100
AcDb2dVertex
 10
-160.2016966271918
 20
-65.45616838172049
 30
0.0
  0
VERTEX
  5
4A
330
48
100
AcDbEntity
  8
\U+30EC\U+30A4\U+30E4\U+30FC 2
 62
   250
420
  2234132
370
    18
100
AcDbVertex
100
AcDb2dVertex
 10
-160.2016966271918
 20
-297.4318259140708
 30
0.0
  0
SEQEND
  5
4B
330
48
100
AcDbEntity
  8
\U+30EC\U+30A4\U+30E4\U+30FC 2
370
    18
  0
POLYLINE
  5
4C
330
44
100
AcDbEntity
  8
\U+30EC\U+30A4\U+30E4\U+30FC 2
 62
   250
420
  2234132
370
    18
100
AcDb2dPolyline
 66
     1
 10
0.0
 20
0.0
 30
0.0
  0
VERTEX
  5
4D
330
4C
100
AcDbEntity
  8
\U+30EC\U+30A4\U+30E4\U+30FC 2
 62
   250
420
  2234132
370
    18
100
AcDbVertex
100
AcDb2dVertex
 10
-132.6264451529148
 20
-65.45616838172049
 30
0.0
  0
VERTEX
  5
4E
330
4C
100
AcDbEntity
  8
\U+30EC\U+30A4\U+30E4\U+30FC 2
 62
   250
420
  2234132
370
    18
100
AcDbVertex
100
AcDb2dVertex
 10
-132.6264451529148
 20
-297.4125333666262
 30
0.0
  0
SEQEND
  5
4F
330
4C
100
AcDbEntity
  8
\U+30EC\U+30A4\U+30E4\U+30FC 2
370
    18
  0
ENDBLK
  5
47
330
44
100
AcDbEntity
  8
0
100
AcDbBlockEnd
  0
BLOCK
  5
62
330
60
100
AcDbEntity
  8
0
100
AcDbBlockBegin
  2
block 3
 70
     0
 71
     0
 10
0.0
 20
0.0
 30
0.0
  3
block 3
  1

  0
SPLINE
  5
64
330
60
100
AcDbEntity
  8
\U+30EC\U+30A4\U+30E4\U+30FC 2
 62
   250
420
  2234132
370
    18
100
AcDbSpline
210
0.0
220
0.0
230
1.0
 70
     8
 71
     3
 72
    14
 73
    10
 74
     0
 42
0.0000000001
 43
0.0000000001
 40
0.0
 40
0.0
 40
0.0
 40
0.0
 40
1.0
 40
1.0
 40
1.0
 40
2.0
 40
2.0
 40
2.0
 40
3.0
 40
3.0
 40
3.0
 40
3.0
 10
-313.5162983264423
 20
-385.5953226380684
 30
0.0
 10
-313.5162983264423
 20
-385.5953226380684
 30
0.0
 10
-313.5162983264423
 20
-393.7260978566337
 30
0.0
 10
-313.5162983264423
 20
-395.0638293160503
 30
0.0
 10
-313.5162983264423
 20
-396.4015607754668
 30
0.0
 10
-312.2009600024525
 20
-398.3638884584017
 30
0.0
 10
-310.2713607482182
 20
-398.3638884584017
 30
0.0
 10
-308.3417614939839
 20
-398.3638884584017
 30
0.0
 10
-289.7492579138162
 20
-398.3638884584017
 30
0.0
 10
-289.7492579138162
 20
-398.3638884584017
 30
0.0
  0
SPLINE
  5
65
330
60
100
AcDbEntity
  8
\U+30EC\U+30A4\U+30E4\U+30FC 2
 62
   250
420
  2234132
370
    18
100
AcDbSpline
210
0.0
220
0.0
230
1.0
 70
     8
 71
     3
 72
    14
 73
    10
 74
     0
 42
0.0000000001
 43
0.0000000001
 40
0.0
 40
0.0
 40
0.0
 40
0.0
 40
1.0
 40
1.0
 40
1.0
 40
2.0
 40
2.0
 40
2.0
 40
3.0
 40
3.0
 40
3.0
 40
3.0
 10
-265.9825620109659
 20
-385.5953226380684
 30
0.0
 10
-265.9825620109659
 20
-385.5953226380684
 30
0.0
 10
-265.9825620109659
 20
-393.7260978566337
 30
0.0
 10
-265.9825620109659
 20
-395.0638293160503
 30
0.0
 10
-265.9825620109659
 20
-396.4015607754668
 30
0.0
 10
-267.2982448447315
 20
-398.3638884584017
 30
0.0
 10
-269.22749958919
 20
-398.3638884584017
 30
0.0
 10
-271.1567543336486
 20
-398.3638884584017
 30
0.0
 10
-289.7492579138162
 20
-398.3638884584017
 30
0.0
 10
-289.7492579138162
 20
-398.3638884584017
 30
0.0
  0
ENDBLK
  5
63
330
60
100
AcDbEntity
  8
0
100
AcDbBlockEnd
  0
BLOCK
  5
68
330
66
100
AcDbEntity
  8
0
100
AcDbBlockBegin
  2
block 4
 70
     0
 71
     0
 10
0.0
 20
0.0
 30
0.0
  3
block 4
  1

  0
SPLINE
  5
6A
330
66
100
AcDbEntity
  8
\U+30EC\U+30A4\U+30E4\U+30FC 2
 62
   250
420
  2234132
370
    18
100
AcDbSpline
210
0.0
220
0.0
230
1.0
 70
     8
 71
     3
 72
    14
 73
    10
 74
     0
 42
0.0000000001
 43
0.0000000001
 40
0.0
 40
0.0
 40
0.0
 40
0.0
 40
1.0
 40
1.0
 40
1.0
 40
2.0
 40
2.0
 40
2.0
 40
3.0
 40
3.0
 40
3.0
 40
3.0
 10
-429.6319402194379
 20
-385.5953226380684
 30
0.0
 10
-429.6319402194379
 20
-385.5953226380684
 30
0.0
 10
-429.6319402194379
 20
-393.7260978566337
 30
0.0
 10
-429.6319402194379
 20
-395.0638293160503
 30
0.0
 10
-429.6319402194379
 20
-396.4015607754668
 30
0.0
 10
-428.3166018954481
 20
-398.3638884584017
 30
0.0
 10
-426.3870026412137
 20
-398.3638884584017
 30
0.0
 10
-424.4574033869794
 20
-398.3638884584017
 30
0.0
 10
-405.8648998068118
 20
-398.3638884584017
 30
0.0
 10
-405.8648998068118
 20
-398.3638884584017
 30
0.0
  0
SPLINE
  5
6B
330
66
100
AcDbEntity
  8
\U+30EC\U+30A4\U+30E4\U+30FC 2
 62
   250
420
  2234132
370
    18
100
AcDbSpline
210
0.0
220
0.0
230
1.0
 70
     8
 71
     3
 72
    14
 73
    10
 74
     0
 42
0.0000000001
 43
0.0000000001
 40
0.0
 40
0.0
 40
0.0
 40
0.0
 40
1.0
 40
1.0
 40
1.0
 40
2.0
 40
2.0
 40
2.0
 40
3.0
 40
3.0
 40
3.0
 40
3.0
 10
-382.0982039039615
 20
-385.5953226380684
 30
0.0
 10
-382.0982039039615
 20
-385.5953226380684
 30
0.0
 10
-382.0982039039615
 20
-393.7260978566337
 30
0.0
 10
-382.0982039039615
 20
-395.0638293160503
 30
0.0
 10
-382.0982039039615
 20
-396.4015607754668
 30
0.0
 10
-383.413886737727
 20
-398.3638884584017
 30
0.0
 10
-385.3431414821856
 20
-398.3638884584017
 30
0.0
 10
-387.2723962266441
 20
-398.3638884584017
 30
0.0
 10
-405.8648998068118
 20
-398.3638884584017
 30
0.0
 10
-405.8648998068118
 20
-398.3638884584017
 30
0.0
  0
ENDBLK
  5
69
330
66
100
AcDbEntity
  8
0
100
AcDbBlockEnd
  0
BLOCK
  5
AF
330
AD
100
AcDbEntity
  8
0
100
AcDbBlockBegin
  2
block 5
 70
     0
 71
     0
 10
0.0
 20
0.0
 30
0.0
  3
block 5
  1

  0
SPLINE
  5
B1
330
AD
100
AcDbEntity
  8
\U+30EC\U+30A4\U+30E4\U+30FC 2
 62
   250
420
  2234132
370
    18
100
AcDbSpline
210
0.0
220
0.0
230
1.0
 70
     8
 71
     3
 72
    14
 73
    10
 74
     0
 42
0.0000000001
 43
0.0000000001
 40
0.0
 40
0.0
 40
0.0
 40
0.0
 40
1.0
 40
1.0
 40
1.0
 40
2.0
 40
2.0
 40
2.0
 40
3.0
 40
3.0
 40
3.0
 40
3.0
 10
20.5651665563765
 20
-385.5953226380684
 30
0.0
 10
20.5651665563765
 20
-385.5953226380684
 30
0.0
 10
20.5651665563765
 20
-393.7260978566337
 30
0.0
 10
20.5651665563765
 20
-395.0638293160503
 30
0.0
 10
20.5651665563765
 20
-396.4015607754668
 30
0.0
 10
19.24948372261093
 20
-398.3638884584017
 30
0.0
 10
17.32022897815239
 20
-398.3638884584017
 30
0.0
 10
15.39062972391805
 20
-398.3638884584017
 30
0.0
 10
-3.201873856249593
 20
-398.3638884584017
 30
0.0
 10
-3.201873856249593
 20
-398.3638884584017
 30
0.0
  0
SPLINE
  5
B2
330
AD
100
AcDbEntity
  8
\U+30EC\U+30A4\U+30E4\U+30FC 2
 62
   250
420
  2234132
370
    18
100
AcDbSpline
210
0.0
220
0.0
230
1.0
 70
     8
 71
     3
 72
    14
 73
    10
 74
     0
 42
0.0000000001
 43
0.0000000001
 40
0.0
 40
0.0
 40
0.0
 40
0.0
 40
1.0
 40
1.0
 40
1.0
 40
2.0
 40
2.0
 40
2.0
 40
3.0
 40
3.0
 40
3.0
 40
3.0
 10
-26.96856975909989
 20
-385.5953226380684
 30
0.0
 10
-26.96856975909989
 20
-385.5953226380684
 30
0.0
 10
-26.96856975909989
 20
-393.7260978566337
 30
0.0
 10
-26.96856975909989
 20
-395.0638293160503
 30
0.0
 10
-26.96856975909989
 20
-396.4015607754668
 30
0.0
 10
-25.65323143511012
 20
-398.3638884584017
 30
0.0
 10
-23.72363218087578
 20
-398.3638884584017
 30
0.0
 10
-21.79437743641723
 20
-398.3638884584017
 30
0.0
 10
-3.201873856249593
 20
-398.3638884584017
 30
0.0
 10
-3.201873856249593
 20
-398.3638884584017
 30
0.0
  0
ENDBLK
  5
B0
330
AD
100
AcDbEntity
  8
0
100
AcDbBlockEnd
  0
BLOCK
  5
B5
330
B3
100
AcDbEntity
  8
0
100
AcDbBlockBegin
  2
block 6
 70
     0
 71
     0
 10
0.0
 20
0.0
 30
0.0
  3
block 6
  1

  0
SPLINE
  5
B7
330
B3
100
AcDbEntity
  8
\U+30EC\U+30A4\U+30E4\U+30FC 2
 62
   250
420
  2234132
370
    18
100
AcDbSpline
210
0.0
220
0.0
230
1.0
 70
     8
 71
     3
 72
    14
 73
    10
 74
     0
 42
0.0000000001
 43
0.0000000001
 40
0.0
 40
0.0
 40
0.0
 40
0.0
 40
1.0
 40
1.0
 40
1.0
 40
2.0
 40
2.0
 40
2.0
 40
3.0
 40
3.0
 40
3.0
 40
3.0
 10
136.6801194298204
 20
-385.5953226380684
 30
0.0
 10
136.6801194298204
 20
-385.5953226380684
 30
0.0
 10
136.6801194298204
 20
-393.7260978566337
 30
0.0
 10
136.6801194298204
 20
-395.0638293160503
 30
0.0
 10
136.6801194298204
 20
-396.4015607754668
 30
0.0
 10
135.3644365960549
 20
-398.3638884584017
 30
0.0
 10
133.4348373418205
 20
-398.3638884584017
 30
0.0
 10
131.505582597362
 20
-398.3638884584017
 30
0.0
 10
112.9130790171943
 20
-398.3638884584017
 30
0.0
 10
112.9130790171943
 20
-398.3638884584017
 30
0.0
  0
SPLINE
  5
B8
330
B3
100
AcDbEntity
  8
\U+30EC\U+30A4\U+30E4\U+30FC 2
 62
   250
420
  2234132
370
    18
100
AcDbSpline
210
0.0
220
0.0
230
1.0
 70
     8
 71
     3
 72
    14
 73
    10
 74
     0
 42
0.0000000001
 43
0.0000000001
 40
0.0
 40
0.0
 40
0.0
 40
0.0
 40
1.0
 40
1.0
 40
1.0
 40
2.0
 40
2.0
 40
2.0
 40
3.0
 40
3.0
 40
3.0
 40
3.0
 10
89.14603860456825
 20
-385.5953226380684
 30
0.0
 10
89.14603860456825
 20
-385.5953226380684
 30
0.0
 10
89.14603860456825
 20
-393.7260978566337
 30
0.0
 10
89.14603860456825
 20
-395.0638293160503
 30
0.0
 10
89.14603860456825
 20
-396.4015607754668
 30
0.0
 10
90.46172143833381
 20
-398.3638884584017
 30
0.0
 10
92.39132069256816
 20
-398.3638884584017
 30
0.0
 10
94.3205754370267
 20
-398.3638884584017
 30
0.0
 10
112.9130790171943
 20
-398.3638884584017
 30
0.0
 10
112.9130790171943
 20
-398.3638884584017
 30
0.0
  0
ENDBLK
  5
B6
330
B3
100
AcDbEntity
  8
0
100
AcDbBlockEnd
  0
ENDSEC
  0
SECTION
  2
ENTITIES
  0
POLYLINE
  5
3C
330
1F
100
AcDbEntity
  8
\U+30EC\U+30A4\U+30E4\U+30FC 2
 62
   250
420
  2234132
370
    18
100
AcDb2dPolyline
 66
     1
 10
0.0
 20
0.0
 30
0.0
  0
VERTEX
  5
3D
330
3C
100
AcDbEntity
  8
\U+30EC\U+30A4\U+30E4\U+30FC 2
 62
   250
420
  2234132
370
    18
100
AcDbVertex
100
AcDb2dVertex
 10
-160.2016966271918
 20
-324.0879253065236
 30
0.0
  0
VERTEX
  5
3E
330
3C
100
AcDbEntity
  8
\U+30EC\U+30A4\U+30E4\U+30FC 2
 62
   250
420
  2234132
370
    18
100
AcDbVertex
100
AcDb2dVertex
 10
-160.2016966271918
 20
-358.7500873787035
 30
0.0
  0
SEQEND
  5
3F
330
3C
100
AcDbEntity
  8
\U+30EC\U+30A4\U+30E4\U+30FC 2
370
    18
  0
POLYLINE
  5
40
330
1F
100
AcDbEntity
  8
\U+30EC\U+30A4\U+30E4\U+30FC 2
 62
   250
420
  2234132
370
    18
100
AcDb2dPolyline
 66
     1
 10
0.0
 20
0.0
 30
0.0
  0
VERTEX
  5
41
330
40
100
AcDbEntity
  8
\U+30EC\U+30A4\U+30E4\U+30FC 2
 62
   250
420
  2234132
370
    18
100
AcDbVertex
100
AcDb2dVertex
 10
-132.6264451529148
 20
-324.1296109893949
 30
0.0
  0
VERTEX
  5
42
330
40
100
AcDbEntity
  8
\U+30EC\U+30A4\U+30E4\U+30FC 2
 62
   250
420
  2234132
370
    18
100
AcDbVertex
100
AcDb2dVertex
 10
-132.6264451529148
 20
-358.7500873787035
 30
0.0
  0
SEQEND
  5
43
330
40
100
AcDbEntity
  8
\U+30EC\U+30A4\U+30E4\U+30FC 2
370
    18
  0
INSERT
  5
45
330
1F
100
AcDbEntity
  8
\U+30EC\U+30A4\U+30E4\U+30FC 2
100
AcDbBlockReference
  2
block 2
 10
0.0
 20
0.0
 30
0.0
  0
POLYLINE
  5
50
330
1F
100
AcDbEntity
  8
\U+30EC\U+30A4\U+30E4\U+30FC 2
 62
   250
420
  2234132
370
    18
100
AcDb2dPolyline
 66
     1
 10
0.0
 20
0.0
 30
0.0
  0
VERTEX
  5
51
330
50
100
AcDbEntity
  8
\U+30EC\U+30A4\U+30E4\U+30FC 2
 62
   250
420
  2234132
370
    18
100
AcDbVertex
100
AcDb2dVertex
 10
-98.77767066138964
 20
-297.4338929727256
 30
0.0
  0
VERTEX
  5
52
330
50
100
AcDbEntity
  8
\U+30EC\U+30A4\U+30E4\U+30FC 2
 62
   250
420
  2234132
370
    18
100
AcDbVertex
100
AcDb2dVertex
 10
-11.47596514154618
 20
-297.4338929727256
 30
0.0
  0
VERTEX
  5
53
330
50
100
AcDbEntity
  8
\U+30EC\U+30A4\U+30E4\U+30FC 2
 62
   250
420
  2234132
370
    18
100
AcDbVertex
100
AcDb2dVertex
 10
-11.47596514154618
 20
-324.1313335382739
 30
0.0
  0
VERTEX
  5
54
330
50
100
AcDbEntity
  8
\U+30EC\U+30A4\U+30E4\U+30FC 2
 62
   250
420
  2234132
370
    18
100
AcDbVertex
100
AcDb2dVertex
 10
-158.1982000260491
 20
-324.1313335382739
 30
0.0
  0
SEQEND
  5
55
330
50
100
AcDbEntity
  8
\U+30EC\U+30A4\U+30E4\U+30FC 2
370
    18
  0
POLYLINE
  5
56
330
1F
100
AcDbEntity
  8
\U+30EC\U+30A4\U+30E4\U+30FC 2
 62
   250
420
  2234132
370
    18
100
AcDb2dPolyline
 66
     1
 10
0.0
 20
0.0
 30
0.0
  0
VERTEX
  5
57
330
56
100
AcDbEntity
  8
\U+30EC\U+30A4\U+30E4\U+30FC 2
 62
   250
420
  2234132
370
    18
100
AcDbVertex
100
AcDb2dVertex
 10
-158.1982000260491
 20
-324.1313335382739
 30
0.0
  0
VERTEX
  5
58
330
56
100
AcDbEntity
  8
\U+30EC\U+30A4\U+30E4\U+30FC 2
 62
   250
420
  2234132
370
    18
100
AcDbVertex
100
AcDb2dVertex
 10
-282.0515314834266
 20
-324.1313335382739
 30
0.0
  0
VERTEX
  5
59
330
56
100
AcDbEntity
  8
\U+30EC\U+30A4\U+30E4\U+30FC 2
 62
   250
420
  2234132
370
    18
100
AcDbVertex
100
AcDb2dVertex
 10
-282.0515314834266
 20
-297.4338929727256
 30
0.0
  0
VERTEX
  5
5A
330
56
100
AcDbEntity
  8
\U+30EC\U+30A4\U+30E4\U+30FC 2
 62
   250
420
  2234132
370
    18
100
AcDbVertex
100
AcDb2dVertex
 10
-98.77767066138964
 20
-297.4338929727256
 30
0.0
  0
SEQEND
  5
5B
330
56
100
AcDbEntity
  8
\U+30EC\U+30A4\U+30E4\U+30FC 2
370
    18
  0
SPLINE
  5
5C
330
1F
100
AcDbEntity
  8
\U+30EC\U+30A4\U+30E4\U+30FC 2
 62
   250
420
  2234132
370
    18
100
AcDbSpline
210
0.0
220
0.0
230
1.0
 70
     8
 71
     3
 72
    11
 73
     7
 74
     0
 42
0.0000000001
 43
0.0000000001
 40
0.0
 40
0.0
 40
0.0
 40
0.0
 40
1.0
 40
1.0
 40
1.0
 40
2.0
 40
2.0
 40
2.0
 40
2.0
 10
-132.626100643139
 20
-358.7500873787035
 30
0.0
 10
-132.626100643139
 20
-366.5205053717861
 30
0.0
 10
-138.7990268058548
 20
-372.8202111319948
 30
0.0
 10
-146.4138986351654
 20
-372.8202111319948
 30
0.0
 10
-154.028770464476
 20
-372.8202111319948
 30
0.0
 10
-160.2016966271918
 20
-366.5205053717861
 30
0.0
 10
-160.2016966271918
 20
-358.7500873787035
 30
0.0
  0
SPLINE
  5
5D
330
1F
100
AcDbEntity
  8
\U+30EC\U+30A4\U+30E4\U+30FC 2
 62
   250
420
  2234132
370
    18
100
AcDbSpline
210
0.0
220
0.0
230
1.0
 70
     8
 71
     3
 72
    14
 73
    10
 74
     0
 42
0.0000000001
 43
0.0000000001
 40
0.0
 40
0.0
 40
0.0
 40
0.0
 40
1.0
 40
1.0
 40
1.0
 40
2.0
 40
2.0
 40
2.0
 40
3.0
 40
3.0
 40
3.0
 40
3.0
 10
-170.2718896286017
 20
-385.5953226380684
 30
0.0
 10
-170.2718896286017
 20
-385.5953226380684
 30
0.0
 10
-170.2718896286017
 20
-393.7260978566337
 30
0.0
 10
-170.2718896286017
 20
-395.0638293160503
 30
0.0
 10
-170.2718896286017
 20
-396.4015607754668
 30
0.0
 10
-168.9562067948361
 20
-398.3638884584017
 30
0.0
 10
-167.0269520503776
 20
-398.3638884584017
 30
0.0
 10
-165.0973527961432
 20
-398.3638884584017
 30
0.0
 10
-146.5048492159756
 20
-398.3638884584017
 30
0.0
 10
-146.5048492159756
 20
-398.3638884584017
 30
0.0
  0
SPLINE
  5
5E
330
1F
100
AcDbEntity
  8
\U+30EC\U+30A4\U+30E4\U+30FC 2
 62
   250
420
  2234132
370
    18
100
AcDbSpline
210
0.0
220
0.0
230
1.0
 70
     8
 71
     3
 72
    50
 73
    46
 74
     0
 42
0.0000000001
 43
0.0000000001
 40
0.0
 40
0.0
 40
0.0
 40
0.0
 40
1.0
 40
1.0
 40
1.0
 40
2.0
 40
2.0
 40
2.0
 40
3.0
 40
3.0
 40
3.0
 40
4.0
 40
4.0
 40
4.0
 40
5.0
 40
5.0
 40
5.0
 40
6.0
 40
6.0
 40
6.0
 40
7.0
 40
7.0
 40
7.0
 40
8.0
 40
8.0
 40
8.0
 40
9.0
 40
9.0
 40
9.0
 40
10.0
 40
10.0
 40
10.0
 40
11.0
 40
11.0
 40
11.0
 40
12.0
 40
12.0
 40
12.0
 40
13.0
 40
13.0
 40
13.0
 40
14.0
 40
14.0
 40
14.0
 40
15.0
 40
15.0
 40
15.0
 40
15.0
 10
-173.604332689878
 20
-368.3812026708612
 30
0.0
 10
-175.6655346784665
 20
-368.3812026708612
 30
0.0
 10
-185.3562501618369
 20
-368.3812026708612
 30
0.0
 10
-186.7594384786547
 20
-368.3812026708612
 30
0.0
 10
-188.1629713052483
 20
-368.3812026708612
 30
0.0
 10
-191.1884561562903
 20
-366.4636612587797
 30
0.0
 10
-191.1884561562903
 20
-363.8767373523263
 30
0.0
 10
-191.1884561562903
 20
-361.2905024654244
 30
0.0
 10
-191.5391671080508
 20
-348.6697313389076
 30
0.0
 10
-191.6707698424049
 20
-346.3956223088771
 30
0.0
 10
-191.802372576759
 20
-344.1211687690708
 30
0.0
 10
-193.6000245868634
 20
-341.7574871973333
 30
0.0
 10
-196.9328121579156
 20
-340.4197557379167
 30
0.0
 10
-200.2655997289677
 20
-339.0816797687244
 30
0.0
 10
-211.5786117465623
 20
-337.9224043731703
 30
0.0
 10
-220.7873580535939
 20
-338.3682000230505
 30
0.0
 10
-229.9961043606255
 20
-338.8139956729308
 30
0.0
 10
-268.4089443618983
 20
-342.5601949749383
 30
0.0
 10
-278.0559071037426
 20
-344.1652660203727
 30
0.0
 10
-287.702869845587
 20
-345.7710260853586
 30
0.0
 10
-318.5878267359377
 20
-352.662944150161
 30
0.0
 10
-332.4302295274278
 20
-356.1173436720692
 30
0.0
 10
-346.6081848405433
 20
-359.6554590694958
 30
0.0
 10
-371.0473638257477
 20
-367.7417925269835
 30
0.0
 10
-373.5030295076228
 20
-369.0498961456815
 30
0.0
 10
-375.9586951894979
 20
-370.3583442741554
 30
0.0
 10
-378.8822051469042
 20
-371.5479365299796
 30
0.0
 10
-379.3500494224354
 20
-374.1637992575999
 30
0.0
 10
-379.8178936979666
 20
-376.7803510047718
 30
0.0
 10
-379.3500494224354
 20
-385.5805087177091
 30
0.0
 10
-379.3500494224354
 20
-385.5805087177091
 30
0.0
 10
-379.3500494224354
 20
-385.5805087177091
 30
0.0
 10
-435.4782711146988
 20
-385.5805087177091
 30
0.0
 10
-435.4782711146988
 20
-385.5805087177091
 30
0.0
 10
-435.4782711146988
 20
-385.5805087177091
 30
0.0
 10
-435.4782711146988
 20
-382.012765479564
 30
0.0
 10
-435.4782711146988
 20
-378.2069659863437
 30
0.0
 10
-435.4782711146988
 20
-374.401855512675
 30
0.0
 10
-427.5269854893232
 20
-370.5964005292306
 30
0.0
 10
-423.2002872150991
 20
-368.5748171648586
 30
0.0
 10
-418.8735889408751
 20
-366.5528892907109
 30
0.0
 10
-378.662752419722
 20
-346.8600214866503
 30
0.0
 10
-343.9189415306784
 20
-334.2058329118813
 30
0.0
 10
-331.4382136280227
 20
-329.6603709300266
 30
0.0
 10
-303.9973209663063
 20
-322.4556379888013
 30
0.0
 10
-282.0771974617234
 20
-317.8991516941211
 30
0.0
  0
SPLINE
  5
5F
330
1F
100
AcDbEntity
  8
\U+30EC\U+30A4\U+30E4\U+30FC 2
 62
   250
420
  2234132
370
    18
100
AcDbSpline
210
0.0
220
0.0
230
1.0
 70
     8
 71
     3
 72
    14
 73
    10
 74
     0
 42
0.0000000001
 43
0.0000000001
 40
0.0
 40
0.0
 40
0.0
 40
0.0
 40
1.0
 40
1.0
 40
1.0
 40
2.0
 40
2.0
 40
2.0
 40
3.0
 40
3.0
 40
3.0
 40
3.0
 10
-146.5926992088036
 20
-385.5505363672149
 30
0.0
 10
-146.5926992088036
 20
-385.5505363672149
 30
0.0
 10
-174.2620018518729
 20
-385.5505363672149
 30
0.0
 10
-174.2620018518729
 20
-385.5505363672149
 30
0.0
 10
-174.2620018518729
 20
-385.5505363672149
 30
0.0
 10
-172.113638890008
 20
-341.222119005746
 30
0.0
 10
-171.5872279525915
 20
-333.7300649115067
 30
0.0
 10
-171.3975753210157
 20
-331.0280747399374
 30
0.0
 10
-170.8427423270959
 20
-327.536812672019
 30
0.0
 10
-170.1943749290475
 20
-324.1020502073312
 30
0.0
  0
INSERT
  5
61
330
1F
100
AcDbEntity
  8
\U+30EC\U+30A4\U+30E4\U+30FC 2
100
AcDbBlockReference
  2
block 3
 10
0.0
 20
0.0
 30
0.0
  0
INSERT
  5
67
330
1F
100
AcDbEntity
  8
\U+30EC\U+30A4\U+30E4\U+30FC 2
100
AcDbBlockReference
  2
block 4
 10
0.0
 20
0.0
 30
0.0
  0
SPLINE
  5
6C
330
1F
100
AcDbEntity
  8
\U+30EC\U+30A4\U+30E4\U+30FC 2
 62
   250
420
  2234132
370
    18
100
AcDbSpline
210
0.0
220
0.0
230
1.0
 70
     8
 71
     3
 72
    14
 73
    10
 74
     0
 42
0.0000000001
 43
0.0000000001
 40
0.0
 40
0.0
 40
0.0
 40
0.0
 40
1.0
 40
1.0
 40
1.0
 40
2.0
 40
2.0
 40
2.0
 40
3.0
 40
3.0
 40
3.0
 40
3.0
 10
-160.2053139798376
 20
-289.3127640278825
 30
0.0
 10
-160.2053139798376
 20
-289.3127640278825
 30
0.0
 10
-191.2614922287591
 20
-289.3127640278825
 30
0.0
 10
-191.2614922287591
 20
-289.3127640278825
 30
0.0
 10
-191.2614922287591
 20
-289.3127640278825
 30
0.0
 10
-191.428923979796
 20
-291.2120464218468
 30
0.0
 10
-191.9787615819667
 20
-293.2429315501652
 30
0.0
 10
-192.2157843077144
 20
-294.1179863806875
 30
0.0
 10
-193.4360379335845
 20
-295.6569115491689
 30
0.0
 10
-195.0016626096902
 20
-297.4376825802593
 30
0.0
  0
POLYLINE
  5
6D
330
1F
100
AcDbEntity
  8
\U+30EC\U+30A4\U+30E4\U+30FC 2
 62
   250
420
  2234132
370
    18
100
AcDb2dPolyline
 66
     1
 10
0.0
 20
0.0
 30
0.0
  0
VERTEX
  5
6E
330
6D
100
AcDbEntity
  8
\U+30EC\U+30A4\U+30E4\U+30FC 2
 62
   250
420
  2234132
370
    18
100
AcDbVertex
100
AcDb2dVertex
 10
-190.6182924773476
 20
-107.6586159167512
 30
0.0
  0
VERTEX
  5
6F
330
6D
100
AcDbEntity
  8
\U+30EC\U+30A4\U+30E4\U+30FC 2
 62
   250
420
  2234132
370
    18
100
AcDbVertex
100
AcDb2dVertex
 10
-190.6182924773476
 20
-74.83648055709857
 30
0.0
  0
VERTEX
  5
70
330
6D
100
AcDbEntity
  8
\U+30EC\U+30A4\U+30E4\U+30FC 2
 62
   250
420
  2234132
370
    18
100
AcDbVertex
100
AcDb2dVertex
 10
-160.2347695656682
 20
-74.83648055709857
 30
0.0
  0
SEQEND
  5
71
330
6D
100
AcDbEntity
  8
\U+30EC\U+30A4\U+30E4\U+30FC 2
370
    18
  0
POLYLINE
  5
72
330
1F
100
AcDbEntity
  8
\U+30EC\U+30A4\U+30E4\U+30FC 2
 62
   250
420
  2234132
370
    18
100
AcDb2dPolyline
 66
     1
 10
0.0
 20
0.0
 30
0.0
  0
VERTEX
  5
73
330
72
100
AcDbEntity
  8
\U+30EC\U+30A4\U+30E4\U+30FC 2
 62
   250
420
  2234132
370
    18
100
AcDbVertex
100
AcDb2dVertex
 10
-190.6182924773476
 20
-289.2531638366697
 30
0.0
  0
VERTEX
  5
74
330
72
100
AcDbEntity
  8
\U+30EC\U+30A4\U+30E4\U+30FC 2
 62
   250
420
  2234132
370
    18
100
AcDbVertex
100
AcDb2dVertex
 10
-190.6182924773476
 20
-127.1024031529112
 30
0.0
  0
SEQEND
  5
75
330
72
100
AcDbEntity
  8
\U+30EC\U+30A4\U+30E4\U+30FC 2
370
    18
  0
SPLINE
  5
76
330
1F
100
AcDbEntity
  8
\U+30EC\U+30A4\U+30E4\U+30FC 2
 62
   250
420
  2234132
370
    18
100
AcDbSpline
210
0.0
220
0.0
230
1.0
 70
     8
 71
     3
 72
    11
 73
     7
 74
     0
 42
0.0000000001
 43
0.0000000001
 40
0.0
 40
0.0
 40
0.0
 40
0.0
 40
1.0
 40
1.0
 40
1.0
 40
2.0
 40
2.0
 40
2.0
 40
2.0
 10
-160.2127209400172
 20
-129.364109831013
 30
0.0
 10
-169.8329841742374
 20
-129.7775215619684
 30
0.0
 10
-180.0521776536791
 20
-130.3407950453951
 30
0.0
 10
-180.4449187980867
 20
-130.2839509323888
 30
0.0
 10
-181.0588352185555
 20
-130.1947229004575
 30
0.0
 10
-183.3102066033835
 20
-127.0727753121927
 30
0.0
 10
-183.3102066033835
 20
-127.0727753121927
 30
0.0
  0
SPLINE
  5
77
330
1F
100
AcDbEntity
  8
\U+30EC\U+30A4\U+30E4\U+30FC 2
 62
   250
420
  2234132
370
    18
100
AcDbSpline
210
0.0
220
0.0
230
1.0
 70
     8
 71
     3
 72
    11
 73
     7
 74
     0
 42
0.0000000001
 43
0.0000000001
 40
0.0
 40
0.0
 40
0.0
 40
0.0
 40
1.0
 40
1.0
 40
1.0
 40
2.0
 40
2.0
 40
2.0
 40
2.0
 10
-160.1762029037828
 20
-98.26348982101385
 30
0.0
 10
-170.2265865930845
 20
-99.52542912975522
 30
0.0
 10
-181.103621489409
 20
-101.3885379972609
 30
0.0
 10
-182.0238071005606
 20
-101.5642379829169
 30
0.0
 10
-183.4266509076026
 20
-101.8315775689348
 30
0.0
 10
-186.6719329956025
 20
-102.6346298563156
 30
0.0
 10
-188.8643932087693
 20
-107.7182161079639
 30
0.0
  0
SPLINE
  5
78
330
1F
100
AcDbEntity
  8
\U+30EC\U+30A4\U+30E4\U+30FC 2
 62
   250
420
  2234132
370
    18
100
AcDbSpline
210
0.0
220
0.0
230
1.0
 70
     8
 71
     3
 72
     8
 73
     4
 74
     0
 42
0.0000000001
 43
0.0000000001
 40
0.0
 40
0.0
 40
0.0
 40
0.0
 40
1.0
 40
1.0
 40
1.0
 40
1.0
 10
-180.4449187980867
 20
-130.2839509323888
 30
0.0
 10
-180.0942078463262
 20
-115.3890707758414
 30
0.0
 10
-181.4098906800918
 20
-106.8266248082034
 30
0.0
 10
-184.3916227896077
 20
-102.4561737924532
 30
0.0
  0
SPLINE
  5
79
330
1F
100
AcDbEntity
  8
\U+30EC\U+30A4\U+30E4\U+30FC 2
 62
   250
420
  2234132
370
    18
100
AcDbSpline
210
0.0
220
0.0
230
1.0
 70
    11
 71
     3
 72
    20
 73
    16
 74
     0
 42
0.0000000001
 43
0.0000000001
 40
0.0
 40
0.0
 40
0.0
 40
0.0
 40
1.0
 40
1.0
 40
1.0
 40
2.0
 40
2.0
 40
2.0
 40
3.0
 40
3.0
 40
3.0
 40
4.0
 40
4.0
 40
4.0
 40
5.0
 40
5.0
 40
5.0
 40
5.0
 10
-185.7073056233732
 20
-107.7182161079639
 30
0.0
 10
-185.7073056233732
 20
-107.7182161079639
 30
0.0
 10
-213.1571555392604
 20
-107.7182161079639
 30
0.0
 10
-213.1571555392604
 20
-107.7182161079639
 30
0.0
 10
-213.1571555392604
 20
-107.7182161079639
 30
0.0
 10
-213.1571555392604
 20
-127.0727753121927
 30
0.0
 10
-213.1571555392604
 20
-127.0727753121927
 30
0.0
 10
-213.1571555392604
 20
-127.0727753121927
 30
0.0
 10
-182.2870125692689
 20
-127.0727753121927
 30
0.0
 10
-182.2870125692689
 20
-127.0727753121927
 30
0.0
 10
-182.2870125692689
 20
-127.0727753121927
 30
0.0
 10
-182.2870125692689
 20
-123.3269205199609
 30
0.0
 10
-182.7252290040816
 20
-117.4406264907076
 30
0.0
 10
-183.1637899486701
 20
-111.5536434419027
 30
0.0
 10
-185.7073056233732
 20
-107.7182161079639
 30
0.0
 10
-185.7073056233732
 20
-107.7182161079639
 30
0.0
  0
SPLINE
  5
7A
330
1F
100
AcDbEntity
  8
\U+30EC\U+30A4\U+30E4\U+30FC 2
 62
   250
420
  2234132
370
    18
100
AcDbSpline
210
0.0
220
0.0
230
1.0
 70
    11
 71
     3
 72
    17
 73
    13
 74
     0
 42
0.0000000001
 43
0.0000000001
 40
0.0
 40
0.0
 40
0.0
 40
0.0
 40
1.0
 40
1.0
 40
1.0
 40
2.0
 40
2.0
 40
2.0
 40
3.0
 40
3.0
 40
3.0
 40
4.0
 40
4.0
 40
4.0
 40
4.0
 10
-193.7757245725195
 20
-120.3837735053343
 30
0.0
 10
-193.7757245725195
 20
-123.536382463645
 30
0.0
 10
-196.2885788771767
 20
-126.091955980501
 30
0.0
 10
-199.3884778397907
 20
-126.091955980501
 30
0.0
 10
-202.4880322926288
 20
-126.091955980501
 30
0.0
 10
-205.0012311070619
 20
-123.536382463645
 30
0.0
 10
-205.0012311070619
 20
-120.3837735053343
 30
0.0
 10
-205.0012311070619
 20
-117.2308200372477
 30
0.0
 10
-202.4880322926288
 20
-114.6755910301675
 30
0.0
 10
-199.3884778397907
 20
-114.6755910301675
 30
0.0
 10
-196.2885788771767
 20
-114.6755910301675
 30
0.0
 10
-193.7757245725195
 20
-117.2308200372477
 30
0.0
 10
-193.7757245725195
 20
-120.3837735053343
 30
0.0
  0
SPLINE
  5
7B
330
1F
100
AcDbEntity
  8
\U+30EC\U+30A4\U+30E4\U+30FC 2
 62
   250
420
  2234132
370
    18
100
AcDbSpline
210
0.0
220
0.0
230
1.0
 70
     8
 71
     3
 72
    17
 73
    13
 74
     0
 42
0.0000000001
 43
0.0000000001
 40
0.0
 40
0.0
 40
0.0
 40
0.0
 40
1.0
 40
1.0
 40
1.0
 40
2.0
 40
2.0
 40
2.0
 40
3.0
 40
3.0
 40
3.0
 40
4.0
 40
4.0
 40
4.0
 40
4.0
 10
-213.1519878926234
 20
-111.9343267441574
 30
0.0
 10
-213.9006076354285
 20
-114.3944710531179
 30
0.0
 10
-214.6743765918667
 20
-116.883898693021
 30
0.0
 10
-215.5253157380832
 20
-119.2685953610821
 30
0.0
 10
-219.8227306813646
 20
-131.3099010447098
 30
0.0
 10
-226.0053031178027
 20
-148.9694721520214
 30
0.0
 10
-225.1722784799275
 20
-152.0466334694327
 30
0.0
 10
-224.3392538420524
 20
-155.1237947868441
 30
0.0
 10
-223.3746264698231
 20
-158.735979786067
 30
0.0
 10
-210.7018343671611
 20
-158.735979786067
 30
0.0
 10
-198.029042264499
 20
-158.735979786067
 30
0.0
 10
-190.6620452188737
 20
-158.735979786067
 30
0.0
 10
-190.6620452188737
 20
-158.735979786067
 30
0.0
  0
SPLINE
  5
7C
330
1F
100
AcDbEntity
  8
\U+30EC\U+30A4\U+30E4\U+30FC 2
 62
   250
420
  2234132
370
    18
100
AcDbSpline
210
0.0
220
0.0
230
1.0
 70
     8
 71
     3
 72
    11
 73
     7
 74
     0
 42
0.0000000001
 43
0.0000000001
 40
0.0
 40
0.0
 40
0.0
 40
0.0
 40
1.0
 40
1.0
 40
1.0
 40
2.0
 40
2.0
 40
2.0
 40
2.0
 10
-194.3455437416864
 20
-107.7182161079639
 30
0.0
 10
-194.827857427801
 20
-103.303323331136
 30
0.0
 10
-194.7841046862749
 20
-92.51121009454522
 30
0.0
 10
-201.8441435216658
 20
-92.51121009454522
 30
0.0
 10
-206.6893290084631
 20
-92.51121009454522
 30
0.0
 10
-209.3034691872044
 20
-99.44274678356413
 30
0.0
 10
-211.856286625854
 20
-107.6834206206085
 30
0.0
  0
SPLINE
  5
7D
330
1F
100
AcDbEntity
  8
\U+30EC\U+30A4\U+30E4\U+30FC 2
 62
   250
420
  2234132
370
    18
100
AcDbSpline
210
0.0
220
0.0
230
1.0
 70
     8
 71
     3
 72
    14
 73
    10
 74
     0
 42
0.0000000001
 43
0.0000000001
 40
0.0
 40
0.0
 40
0.0
 40
0.0
 40
1.0
 40
1.0
 40
1.0
 40
2.0
 40
2.0
 40
2.0
 40
3.0
 40
3.0
 40
3.0
 40
3.0
 10
-206.5360221582338
 20
-127.1623478538997
 30
0.0
 10
-206.5360221582338
 20
-127.1623478538997
 30
0.0
 10
-212.4557336357394
 20
-143.5289737726483
 30
0.0
 10
-213.0696500562081
 20
-145.3128453917208
 30
0.0
 10
-213.6835664766769
 20
-147.0963725010176
 30
0.0
 10
-213.5960609936247
 20
-147.5425126606737
 30
0.0
 10
-211.7543117322184
 20
-147.5425126606737
 30
0.0
 10
-209.912562470812
 20
-147.5425126606737
 30
0.0
 10
-190.5745397358215
 20
-147.5425126606737
 30
0.0
 10
-190.5745397358215
 20
-147.5425126606737
 30
0.0
  0
SPLINE
  5
7E
330
1F
100
AcDbEntity
  8
\U+30EC\U+30A4\U+30E4\U+30FC 2
 62
   250
420
  2234132
370
    18
100
AcDbSpline
210
0.0
220
0.0
230
1.0
 70
     8
 71
     3
 72
    11
 73
     7
 74
     0
 42
0.0000000001
 43
0.0000000001
 40
0.0
 40
0.0
 40
0.0
 40
0.0
 40
1.0
 40
1.0
 40
1.0
 40
2.0
 40
2.0
 40
2.0
 40
2.0
 10
-173.7796881657583
 20
-375.6503589401603
 30
0.0
 10
-173.195399586008
 20
-374.0449433849502
 30
0.0
 10
-171.6168557933099
 20
-372.6179838936025
 30
0.0
 10
-168.5762125121329
 20
-372.6179838936025
 30
0.0
 10
-165.5359137407317
 20
-372.6179838936025
 30
0.0
 10
-146.4759103948087
 20
-372.6179838936025
 30
0.0
 10
-146.4759103948087
 20
-372.6179838936025
 30
0.0
  0
SPLINE
  5
7F
330
1F
100
AcDbEntity
  8
\U+30EC\U+30A4\U+30E4\U+30FC 2
 62
   250
420
  2234132
370
    18
100
AcDbSpline
210
0.0
220
0.0
230
1.0
 70
     8
 71
     3
 72
    23
 73
    19
 74
     0
 42
0.0000000001
 43
0.0000000001
 40
0.0
 40
0.0
 40
0.0
 40
0.0
 40
1.0
 40
1.0
 40
1.0
 40
2.0
 40
2.0
 40
2.0
 40
3.0
 40
3.0
 40
3.0
 40
4.0
 40
4.0
 40
4.0
 40
5.0
 40
5.0
 40
5.0
 40
6.0
 40
6.0
 40
6.0
 40
6.0
 10
-258.0428174630795
 20
-324.1282329502917
 30
0.0
 10
-262.689909828794
 20
-324.8758191637694
 30
0.0
 10
-267.1718097570143
 20
-325.6661245894458
 30
0.0
 10
-271.2442598167008
 20
-326.4760670723426
 30
0.0
 10
-287.0889534251182
 20
-329.6272979915502
 30
0.0
 10
-318.8365627940626
 20
-338.8436235136493
 30
0.0
 10
-328.6003143499018
 20
-342.0547991338453
 30
0.0
 10
-338.3644104155168
 20
-345.2652857344899
 30
0.0
 10
-364.7335331647313
 20
-355.4930919583265
 30
0.0
 10
-372.8601742659872
 20
-359.2389467505582
 30
0.0
 10
-380.986815367243
 20
-362.9851460525658
 30
0.0
 10
-389.4062897779256
 20
-367.0286572910854
 30
0.0
 10
-390.1077116814466
 20
-367.4444805904714
 30
0.0
 10
-390.8091335849676
 20
-367.8606483996332
 30
0.0
 10
-391.8033887979153
 20
-371.6071922114165
 30
0.0
 10
-391.7455111555815
 20
-373.5095751933629
 30
0.0
 10
-391.6862554741446
 20
-375.412647194861
 30
0.0
 10
-388.9970121642797
 20
-385.5209085264964
 30
0.0
 10
-388.9970121642797
 20
-385.5209085264964
 30
0.0
  0
SPLINE
  5
80
330
1F
100
AcDbEntity
  8
\U+30EC\U+30A4\U+30E4\U+30FC 2
 62
   250
420
  2234132
370
    18
100
AcDbSpline
210
0.0
220
0.0
230
1.0
 70
     8
 71
     3
 72
    20
 73
    16
 74
     0
 42
0.0000000001
 43
0.0000000001
 40
0.0
 40
0.0
 40
0.0
 40
0.0
 40
1.0
 40
1.0
 40
1.0
 40
2.0
 40
2.0
 40
2.0
 40
3.0
 40
3.0
 40
3.0
 40
4.0
 40
4.0
 40
4.0
 40
5.0
 40
5.0
 40
5.0
 40
5.0
 10
-423.9599312707297
 20
-385.5209085264964
 30
0.0
 10
-424.603475531917
 20
-384.4508611628735
 30
0.0
 10
-424.6616976840265
 20
-380.466261096015
 30
0.0
 10
-424.5449088700316
 20
-378.4450222414189
 30
0.0
 10
-424.4281200560367
 20
-376.423438877047
 30
0.0
 10
-423.6099093385208
 20
-375.3530470036483
 30
0.0
 10
-422.4985208018024
 20
-374.461111194112
 30
0.0
 10
-421.3878212846355
 20
-373.5691753845757
 30
0.0
 10
-384.0271141386442
 20
-355.8496595762755
 30
0.0
 10
-373.269451879633
 20
-351.3303803373814
 30
0.0
 10
-362.5114451108461
 20
-346.8114456082631
 30
0.0
 10
-332.6930904863602
 20
-335.3950806579296
 30
0.0
 10
-317.7840854290052
 20
-330.9946572916851
 30
0.0
 10
-307.1408004155584
 20
-327.8534171559756
 30
0.0
 10
-294.6800540798989
 20
-324.3790360670713
 30
0.0
 10
-282.0606609924852
 20
-321.5881623733466
 30
0.0
  0
POLYLINE
  5
81
330
1F
100
AcDbEntity
  8
\U+30EC\U+30A4\U+30E4\U+30FC 2
 62
   250
420
  2234132
370
    18
100
AcDb2dPolyline
 66
     1
 10
0.0
 20
0.0
 30
0.0
  0
VERTEX
  5
82
330
81
100
AcDbEntity
  8
\U+30EC\U+30A4\U+30E4\U+30FC 2
 62
   250
420
  2234132
370
    18
100
AcDbVertex
100
AcDb2dVertex
 10
-206.5797748997599
 20
-338.8436235136493
 30
0.0
  0
VERTEX
  5
83
330
81
100
AcDbEntity
  8
\U+30EC\U+30A4\U+30E4\U+30FC 2
 62
   250
420
  2234132
370
    18
100
AcDbVertex
100
AcDb2dVertex
 10
-206.2290639479994
 20
-324.1664735354051
 30
0.0
  0
SEQEND
  5
84
330
81
100
AcDbEntity
  8
\U+30EC\U+30A4\U+30E4\U+30FC 2
370
    18
  0
POLYLINE
  5
85
330
1F
100
AcDbEntity
  8
\U+30EC\U+30A4\U+30E4\U+30FC 2
 62
   250
420
  2234132
370
    18
100
AcDb2dPolyline
 66
     1
 10
0.0
 20
0.0
 30
0.0
  0
VERTEX
  5
86
330
85
100
AcDbEntity
  8
\U+30EC\U+30A4\U+30E4\U+30FC 2
 62
   250
420
  2234132
370
    18
100
AcDbVertex
100
AcDb2dVertex
 10
-214.3557050492552
 20
-338.2489996406251
 30
0.0
  0
VERTEX
  5
87
330
85
100
AcDbEntity
  8
\U+30EC\U+30A4\U+30E4\U+30FC 2
 62
   250
420
  2234132
370
    18
100
AcDbVertex
100
AcDb2dVertex
 10
-214.2392607450361
 20
-324.1223762841032
 30
0.0
  0
SEQEND
  5
88
330
85
100
AcDbEntity
  8
\U+30EC\U+30A4\U+30E4\U+30FC 2
370
    18
  0
POLYLINE
  5
89
330
1F
100
AcDbEntity
  8
\U+30EC\U+30A4\U+30E4\U+30FC 2
 62
   250
420
  2234132
370
    18
100
AcDb2dPolyline
 66
     1
 10
0.0
 20
0.0
 30
0.0
  0
VERTEX
  5
8A
330
89
100
AcDbEntity
  8
\U+30EC\U+30A4\U+30E4\U+30FC 2
 62
   250
420
  2234132
370
    18
100
AcDbVertex
100
AcDb2dVertex
 10
-281.476200157847
 20
-344.7898622438912
 30
0.0
  0
VERTEX
  5
8B
330
89
100
AcDbEntity
  8
\U+30EC\U+30A4\U+30E4\U+30FC 2
 62
   250
420
  2234132
370
    18
100
AcDbVertex
100
AcDb2dVertex
 10
-281.1833668484203
 20
-328.6757619908011
 30
0.0
  0
SEQEND
  5
8C
330
89
100
AcDbEntity
  8
\U+30EC\U+30A4\U+30E4\U+30FC 2
370
    18
  0
POLYLINE
  5
8D
330
1F
100
AcDbEntity
  8
\U+30EC\U+30A4\U+30E4\U+30FC 2
 62
   250
420
  2234132
370
    18
100
AcDb2dPolyline
 66
     1
 10
0.0
 20
0.0
 30
0.0
  0
VERTEX
  5
8E
330
8D
100
AcDbEntity
  8
\U+30EC\U+30A4\U+30E4\U+30FC 2
 62
   250
420
  2234132
370
    18
100
AcDbVertex
100
AcDb2dVertex
 10
-290.0124633825245
 20
-346.5737338629637
 30
0.0
  0
VERTEX
  5
8F
330
8D
100
AcDbEntity
  8
\U+30EC\U+30A4\U+30E4\U+30FC 2
 62
   250
420
  2234132
370
    18
100
AcDbVertex
100
AcDb2dVertex
 10
-290.1874743486289
 20
-330.9946572916851
 30
0.0
  0
SEQEND
  5
90
330
8D
100
AcDbEntity
  8
\U+30EC\U+30A4\U+30E4\U+30FC 2
370
    18
  0
POLYLINE
  5
91
330
1F
100
AcDbEntity
  8
\U+30EC\U+30A4\U+30E4\U+30FC 2
 62
   250
420
  2234132
370
    18
100
AcDb2dPolyline
 66
     1
 10
0.0
 20
0.0
 30
0.0
  0
VERTEX
  5
92
330
91
100
AcDbEntity
  8
\U+30EC\U+30A4\U+30E4\U+30FC 2
 62
   250
420
  2234132
370
    18
100
AcDbVertex
100
AcDb2dVertex
 10
-362.9789448766015
 20
-365.1848409710243
 30
0.0
  0
VERTEX
  5
93
330
91
100
AcDbEntity
  8
\U+30EC\U+30A4\U+30E4\U+30FC 2
 62
   250
420
  2234132
370
    18
100
AcDbVertex
100
AcDb2dVertex
 10
-362.9789448766015
 20
-355.017323957952
 30
0.0
  0
SEQEND
  5
94
330
91
100
AcDbEntity
  8
\U+30EC\U+30A4\U+30E4\U+30FC 2
370
    18
  0
POLYLINE
  5
95
330
1F
100
AcDbEntity
  8
\U+30EC\U+30A4\U+30E4\U+30FC 2
 62
   250
420
  2234132
370
    18
100
AcDb2dPolyline
 66
     1
 10
0.0
 20
0.0
 30
0.0
  0
VERTEX
  5
96
330
95
100
AcDbEntity
  8
\U+30EC\U+30A4\U+30E4\U+30FC 2
 62
   250
420
  2234132
370
    18
100
AcDbVertex
100
AcDb2dVertex
 10
-371.8076969009299
 20
-368.217560527358
 30
0.0
  0
VERTEX
  5
97
330
95
100
AcDbEntity
  8
\U+30EC\U+30A4\U+30E4\U+30FC 2
 62
   250
420
  2234132
370
    18
100
AcDbVertex
100
AcDb2dVertex
 10
-371.8076969009299
 20
-358.8224344316207
 30
0.0
  0
SEQEND
  5
98
330
95
100
AcDbEntity
  8
\U+30EC\U+30A4\U+30E4\U+30FC 2
370
    18
  0
SPLINE
  5
99
330
1F
100
AcDbEntity
  8
\U+30EC\U+30A4\U+30E4\U+30FC 2
 62
   250
420
  2234132
370
    18
100
AcDbSpline
210
0.0
220
0.0
230
1.0
 70
     8
 71
     3
 72
    29
 73
    25
 74
     0
 42
0.0000000001
 43
0.0000000001
 40
0.0
 40
0.0
 40
0.0
 40
0.0
 40
1.0
 40
1.0
 40
1.0
 40
2.0
 40
2.0
 40
2.0
 40
3.0
 40
3.0
 40
3.0
 40
4.0
 40
4.0
 40
4.0
 40
5.0
 40
5.0
 40
5.0
 40
6.0
 40
6.0
 40
6.0
 40
7.0
 40
7.0
 40
7.0
 40
8.0
 40
8.0
 40
8.0
 40
8.0
 10
-195.0614350557908
 20
-341.4601752608212
 30
0.0
 10
-198.3360004747334
 20
-341.8163983689944
 30
0.0
 10
-228.6221993747504
 20
-349.427997355435
 30
0.0
 10
-235.3456521591884
 20
-352.2822608479062
 30
0.0
 10
-242.0691049436265
 20
-355.1361798306017
 30
0.0
 10
-251.6526778867243
 20
-359.9066066960512
 30
0.0
 10
-253.8210224155854
 20
-361.8558430075059
 30
0.0
 10
-258.8494871031062
 20
-366.3747777366243
 30
0.0
 10
-263.1172742056692
 20
-371.0714795100535
 30
0.0
 10
-263.1172742056692
 20
-372.6179838936025
 30
0.0
 10
-263.1172742056692
 20
-374.1637992575999
 30
0.0
 10
-263.1172742056692
 20
-385.7586202717957
 30
0.0
 10
-263.1172742056692
 20
-385.7586202717957
 30
0.0
 10
-263.1172742056692
 20
-385.7586202717957
 30
0.0
 10
-320.9411730144013
 20
-385.7586202717957
 30
0.0
 10
-320.9411730144013
 20
-385.7586202717957
 30
0.0
 10
-320.9411730144013
 20
-385.7586202717957
 30
0.0
 10
-320.9411730144013
 20
-380.7046618608659
 30
0.0
 10
-320.9411730144013
 20
-378.1477103049068
 30
0.0
 10
-320.9411730144013
 20
-375.5907587489476
 30
0.0
 10
-312.5220431134946
 20
-368.5152169736459
 30
0.0
 10
-304.3364908405776
 20
-361.9743543703798
 30
0.0
 10
-296.1512830774364
 20
-355.433147257338
 30
0.0
 10
-282.8211663225553
 20
-346.2171662450147
 30
0.0
 10
-278.2605459105656
 20
-344.2548385620797
 30
0.0
  0
SPLINE
  5
9A
330
1F
100
AcDbEntity
  8
\U+30EC\U+30A4\U+30E4\U+30FC 2
 62
   250
420
  2234132
370
    18
100
AcDbSpline
210
0.0
220
0.0
230
1.0
 70
     8
 71
     3
 72
    11
 73
     7
 74
     0
 42
0.0000000001
 43
0.0000000001
 40
0.0
 40
0.0
 40
0.0
 40
0.0
 40
1.0
 40
1.0
 40
1.0
 40
2.0
 40
2.0
 40
2.0
 40
2.0
 10
-310.8263659970258
 20
-385.2239410997601
 30
0.0
 10
-310.8263659970258
 20
-381.6561978616149
 30
0.0
 10
-308.6049669626921
 20
-375.828470494247
 30
0.0
 10
-306.2657455850361
 20
-372.9745515115515
 30
0.0
 10
-303.9275577367076
 20
-370.1202880190802
 30
0.0
 10
-275.8524225777504
 20
-346.6853550303217
 30
0.0
 10
-264.2758605816717
 20
-342.4041320465026
 30
0.0
  0
SPLINE
  5
9B
330
1F
100
AcDbEntity
  8
\U+30EC\U+30A4\U+30E4\U+30FC 2
 62
   250
420
  2234132
370
    18
100
AcDbSpline
210
0.0
220
0.0
230
1.0
 70
     8
 71
     3
 72
    11
 73
     7
 74
     0
 42
0.0000000001
 43
0.0000000001
 40
0.0
 40
0.0
 40
0.0
 40
0.0
 40
1.0
 40
1.0
 40
1.0
 40
2.0
 40
2.0
 40
2.0
 40
2.0
 10
-304.1029132125878
 20
-370.8337677647541
 30
0.0
 10
-300.6826201584834
 20
-369.0498961456815
 30
0.0
 10
-290.3338910033423
 20
-366.0175210991237
 30
0.0
 10
-288.9307026865245
 20
-364.8582457035695
 30
0.0
 10
-287.5275143697068
 20
-363.6986257982397
 30
0.0
 10
-266.479345107664
 20
-345.7710260853586
 30
0.0
 10
-253.3242393188873
 20
-341.311691547453
 30
0.0
  0
POLYLINE
  5
9C
330
1F
100
AcDbEntity
  8
\U+30EC\U+30A4\U+30E4\U+30FC 2
 62
   250
420
  2234132
370
    18
100
AcDb2dPolyline
 66
     1
 10
0.0
 20
0.0
 30
0.0
  0
VERTEX
  5
9D
330
9C
100
AcDbEntity
  8
\U+30EC\U+30A4\U+30E4\U+30FC 2
 62
   250
420
  2234132
370
    18
100
AcDbVertex
100
AcDb2dVertex
 10
-228.768271519688
 20
-350.0522490691776
 30
0.0
  0
VERTEX
  5
9E
330
9C
100
AcDbEntity
  8
\U+30EC\U+30A4\U+30E4\U+30FC 2
 62
   250
420
  2234132
370
    18
100
AcDbVertex
100
AcDb2dVertex
 10
-228.768271519688
 20
-338.903223704862
 30
0.0
  0
SEQEND
  5
9F
330
9C
100
AcDbEntity
  8
\U+30EC\U+30A4\U+30E4\U+30FC 2
370
    18
  0
POLYLINE
  5
A0
330
1F
100
AcDbEntity
  8
\U+30EC\U+30A4\U+30E4\U+30FC 2
 62
   250
420
  2234132
370
    18
100
AcDb2dPolyline
 66
     1
 10
0.0
 20
0.0
 30
0.0
  0
VERTEX
  5
A1
330
A0
100
AcDbEntity
  8
\U+30EC\U+30A4\U+30E4\U+30FC 2
 62
   250
420
  2234132
370
    18
100
AcDbVertex
100
AcDb2dVertex
 10
-236.9241959518865
 20
-352.9065125616489
 30
0.0
  0
VERTEX
  5
A2
330
A0
100
AcDbEntity
  8
\U+30EC\U+30A4\U+30E4\U+30FC 2
 62
   250
420
  2234132
370
    18
100
AcDbVertex
100
AcDb2dVertex
 10
-236.9241959518865
 20
-339.6170479603117
 30
0.0
  0
SEQEND
  5
A3
330
A0
100
AcDbEntity
  8
\U+30EC\U+30A4\U+30E4\U+30FC 2
370
    18
  0
POLYLINE
  5
A4
330
1F
100
AcDbEntity
  8
\U+30EC\U+30A4\U+30E4\U+30FC 2
 62
   250
420
  2234132
370
    18
100
AcDb2dPolyline
 66
     1
 10
0.0
 20
0.0
 30
0.0
  0
VERTEX
  5
A5
330
A4
100
AcDbEntity
  8
\U+30EC\U+30A4\U+30E4\U+30FC 2
 62
   250
420
  2234132
370
    18
100
AcDbVertex
100
AcDb2dVertex
 10
-279.0205344759719
 20
-356.830823417743
 30
0.0
  0
VERTEX
  5
A6
330
A4
100
AcDbEntity
  8
\U+30EC\U+30A4\U+30E4\U+30FC 2
 62
   250
420
  2234132
370
    18
100
AcDbVertex
100
AcDb2dVertex
 10
-279.0205344759719
 20
-370.9233403064611
 30
0.0
  0
VERTEX
  5
A7
330
A4
100
AcDbEntity
  8
\U+30EC\U+30A4\U+30E4\U+30FC 2
 62
   250
420
  2234132
370
    18
100
AcDbVertex
100
AcDb2dVertex
 10
-270.5135545822371
 20
-369.0498961456815
 30
0.0
  0
VERTEX
  5
A8
330
A4
100
AcDbEntity
  8
\U+30EC\U+30A4\U+30E4\U+30FC 2
 62
   250
420
  2234132
370
    18
100
AcDbVertex
100
AcDb2dVertex
 10
-270.5135545822371
 20
-350.6765007829202
 30
0.0
  0
SEQEND
  5
A9
330
A4
100
AcDbEntity
  8
\U+30EC\U+30A4\U+30E4\U+30FC 2
370
    18
  0
SPLINE
  5
AA
330
1F
100
AcDbEntity
  8
\U+30EC\U+30A4\U+30E4\U+30FC 2
 62
   250
420
  2234132
370
    18
100
AcDbSpline
210
0.0
220
0.0
230
1.0
 70
     8
 71
     3
 72
    14
 73
    10
 74
     0
 42
0.0000000001
 43
0.0000000001
 40
0.0
 40
0.0
 40
0.0
 40
0.0
 40
1.0
 40
1.0
 40
1.0
 40
2.0
 40
2.0
 40
2.0
 40
3.0
 40
3.0
 40
3.0
 40
3.0
 10
-122.6795866512399
 20
-385.5953226380684
 30
0.0
 10
-122.6795866512399
 20
-385.5953226380684
 30
0.0
 10
-122.6795866512399
 20
-393.7260978566337
 30
0.0
 10
-122.6795866512399
 20
-395.0638293160503
 30
0.0
 10
-122.6795866512399
 20
-396.4015607754668
 30
0.0
 10
-123.9949249752297
 20
-398.3638884584017
 30
0.0
 10
-125.924524229464
 20
-398.3638884584017
 30
0.0
 10
-127.8537789739226
 20
-398.3638884584017
 30
0.0
 10
-146.4462825540902
 20
-398.3638884584017
 30
0.0
 10
-146.4462825540902
 20
-398.3638884584017
 30
0.0
  0
SPLINE
  5
AB
330
1F
100
AcDbEntity
  8
\U+30EC\U+30A4\U+30E4\U+30FC 2
 62
   250
420
  2234132
370
    18
100
AcDbSpline
210
0.0
220
0.0
230
1.0
 70
     8
 71
     3
 72
    50
 73
    46
 74
     0
 42
0.0000000001
 43
0.0000000001
 40
0.0
 40
0.0
 40
0.0
 40
0.0
 40
1.0
 40
1.0
 40
1.0
 40
2.0
 40
2.0
 40
2.0
 40
3.0
 40
3.0
 40
3.0
 40
4.0
 40
4.0
 40
4.0
 40
5.0
 40
5.0
 40
5.0
 40
6.0
 40
6.0
 40
6.0
 40
7.0
 40
7.0
 40
7.0
 40
8.0
 40
8.0
 40
8.0
 40
9.0
 40
9.0
 40
9.0
 40
10.0
 40
10.0
 40
10.0
 40
11.0
 40
11.0
 40
11.0
 40
12.0
 40
12.0
 40
12.0
 40
13.0
 40
13.0
 40
13.0
 40
14.0
 40
14.0
 40
14.0
 40
15.0
 40
15.0
 40
15.0
 40
15.0
 10
-119.3467990801878
 20
-368.3812026708612
 30
0.0
 10
-117.2859416013751
 20
-368.3812026708612
 30
0.0
 10
-107.5948816082289
 20
-368.3812026708612
 30
0.0
 10
-106.1916932914111
 20
-368.3812026708612
 30
0.0
 10
-104.7885049745933
 20
-368.3812026708612
 30
0.0
 10
-101.7630201235513
 20
-366.4636612587797
 30
0.0
 10
-101.7630201235513
 20
-363.8767373523263
 30
0.0
 10
-101.7630201235513
 20
-361.2905024654244
 30
0.0
 10
-101.411964662015
 20
-348.6697313389076
 30
0.0
 10
-101.2807064374367
 20
-346.3956223088771
 30
0.0
 10
-101.1491037030826
 20
-344.1211687690708
 30
0.0
 10
-99.35110718320236
 20
-341.7574871973333
 30
0.0
 10
-96.01866412192602
 20
-340.4197557379167
 30
0.0
 10
-92.68587655087387
 20
-339.0816797687244
 30
0.0
 10
-81.37252002350348
 20
-337.9224043731703
 30
0.0
 10
-72.1637737164719
 20
-338.3682000230505
 30
0.0
 10
-62.9553719192161
 20
-338.8139956729308
 30
0.0
 10
-24.54253191794327
 20
-342.5601949749383
 30
0.0
 10
-14.89556917609895
 20
-344.1652660203727
 30
0.0
 10
-5.248261924478836
 20
-345.7710260853586
 30
0.0
 10
25.6366949658719
 20
-352.662944150161
 30
0.0
 10
39.47875324758617
 20
-356.1173436720692
 30
0.0
 10
53.6570530704775
 20
-359.6554590694958
 30
0.0
 10
78.09588754590612
 20
-367.7417925269835
 30
0.0
 10
80.55155322778121
 20
-369.0498961456815
 30
0.0
 10
83.00721890965632
 20
-370.3583442741554
 30
0.0
 10
85.9307288670626
 20
-371.5479365299796
 30
0.0
 10
86.39857314259379
 20
-374.1637992575999
 30
0.0
 10
86.8660729083492
 20
-376.7803510047718
 30
0.0
 10
86.39857314259379
 20
-385.5805087177091
 30
0.0
 10
86.39857314259379
 20
-385.5805087177091
 30
0.0
 10
86.39857314259379
 20
-385.5805087177091
 30
0.0
 10
142.527139344633
 20
-385.5805087177091
 30
0.0
 10
142.527139344633
 20
-385.5805087177091
 30
0.0
 10
142.527139344633
 20
-385.5805087177091
 30
0.0
 10
142.527139344633
 20
-382.012765479564
 30
0.0
 10
142.527139344633
 20
-378.2069659863437
 30
0.0
 10
142.527139344633
 20
-374.401855512675
 30
0.0
 10
134.5751646997059
 20
-370.5964005292306
 30
0.0
 10
130.2491554450334
 20
-368.5748171648586
 30
0.0
 10
125.9221126610335
 20
-366.5528892907109
 30
0.0
 10
85.71162064965624
 20
-346.8600214866503
 30
0.0
 10
50.96780976061261
 20
-334.2058329118813
 30
0.0
 10
38.37149882817729
 20
-329.6183407373795
 30
0.0
 10
10.53683149272582
 20
-322.3219681957924
 30
0.0
 10
-11.48147729795892
 20
-317.7730611161797
 30
0.0
  0
SPLINE
  5
AC
330
1F
100
AcDbEntity
  8
\U+30EC\U+30A4\U+30E4\U+30FC 2
 62
   250
420
  2234132
370
    18
100
AcDbSpline
210
0.0
220
0.0
230
1.0
 70
     8
 71
     3
 72
    14
 73
    10
 74
     0
 42
0.0000000001
 43
0.0000000001
 40
0.0
 40
0.0
 40
0.0
 40
0.0
 40
1.0
 40
1.0
 40
1.0
 40
2.0
 40
2.0
 40
2.0
 40
3.0
 40
3.0
 40
3.0
 40
3.0
 10
-146.358777071038
 20
-385.5505363672149
 30
0.0
 10
-146.358777071038
 20
-385.5505363672149
 30
0.0
 10
-118.6891299181929
 20
-385.5505363672149
 30
0.0
 10
-118.6891299181929
 20
-385.5505363672149
 30
0.0
 10
-118.6891299181929
 20
-385.5505363672149
 30
0.0
 10
-120.8378373898336
 20
-341.222119005746
 30
0.0
 10
-121.3639038174744
 20
-333.7300649115067
 30
0.0
 10
-121.5542454686017
 20
-331.0201510150941
 30
0.0
 10
-122.1116622858399
 20
-327.5168311050228
 30
0.0
 10
-122.7624412523189
 20
-324.0727668763885
 30
0.0
  0
INSERT
  5
AE
330
1F
100
AcDbEntity
  8
\U+30EC\U+30A4\U+30E4\U+30FC 2
100
AcDbBlockReference
  2
block 5
 10
0.0
 20
0.0
 30
0.0
  0
INSERT
  5
B4
330
1F
100
AcDbEntity
  8
\U+30EC\U+30A4\U+30E4\U+30FC 2
100
AcDbBlockReference
  2
block 6
 10
0.0
 20
0.0
 30
0.0
  0
SPLINE
  5
B9
330
1F
100
AcDbEntity
  8
\U+30EC\U+30A4\U+30E4\U+30FC 2
 62
   250
420
  2234132
370
    18
100
AcDbSpline
210
0.0
220
0.0
230
1.0
 70
     8
 71
     3
 72
    14
 73
    10
 74
     0
 42
0.0000000001
 43
0.0000000001
 40
0.0
 40
0.0
 40
0.0
 40
0.0
 40
1.0
 40
1.0
 40
1.0
 40
2.0
 40
2.0
 40
2.0
 40
3.0
 40
3.0
 40
3.0
 40
3.0
 10
-132.6298902506728
 20
-289.3127640278825
 30
0.0
 10
-132.6298902506728
 20
-289.3127640278825
 30
0.0
 10
-101.6896395413067
 20
-289.3127640278825
 30
0.0
 10
-101.6896395413067
 20
-289.3127640278825
 30
0.0
 10
-101.6896395413067
 20
-289.3127640278825
 30
0.0
 10
-101.4738041667704
 20
-291.2613113197856
 30
0.0
 10
-100.9520441113272
 20
-293.3418058558187
 30
0.0
 10
-100.6611056056673
 20
-294.5024592904759
 30
0.0
 10
-99.83514341819597
 20
-295.923906625411
 30
0.0
 10
-98.75097115376543
 20
-297.4156339546084
 30
0.0
  0
POLYLINE
  5
BA
330
1F
100
AcDbEntity
  8
\U+30EC\U+30A4\U+30E4\U+30FC 2
 62
   250
420
  2234132
370
    18
100
AcDb2dPolyline
 66
     1
 10
0.0
 20
0.0
 30
0.0
  0
VERTEX
  5
BB
330
BA
100
AcDbEntity
  8
\U+30EC\U+30A4\U+30E4\U+30FC 2
 62
   250
420
  2234132
370
    18
100
AcDbVertex
100
AcDb2dVertex
 10
-102.3328392927182
 20
-107.6586159167512
 30
0.0
  0
VERTEX
  5
BC
330
BA
100
AcDbEntity
  8
\U+30EC\U+30A4\U+30E4\U+30FC 2
 62
   250
420
  2234132
370
    18
100
AcDbVertex
100
AcDb2dVertex
 10
-102.3328392927182
 20
-74.83648055709857
 30
0.0
  0
VERTEX
  5
BD
330
BA
100
AcDbEntity
  8
\U+30EC\U+30A4\U+30E4\U+30FC 2
 62
   250
420
  2234132
370
    18
100
AcDbVertex
100
AcDb2dVertex
 10
-132.6004346648422
 20
-74.83648055709857
 30
0.0
  0
SEQEND
  5
BE
330
BA
100
AcDbEntity
  8
\U+30EC\U+30A4\U+30E4\U+30FC 2
370
    18
  0
POLYLINE
  5
BF
330
1F
100
AcDbEntity
  8
\U+30EC\U+30A4\U+30E4\U+30FC 2
 62
   250
420
  2234132
370
    18
100
AcDb2dPolyline
 66
     1
 10
0.0
 20
0.0
 30
0.0
  0
VERTEX
  5
C0
330
BF
100
AcDbEntity
  8
\U+30EC\U+30A4\U+30E4\U+30FC 2
 62
   250
420
  2234132
370
    18
100
AcDbVertex
100
AcDb2dVertex
 10
-102.3328392927182
 20
-289.2531638366697
 30
0.0
  0
VERTEX
  5
C1
330
BF
100
AcDbEntity
  8
\U+30EC\U+30A4\U+30E4\U+30FC 2
 62
   250
420
  2234132
370
    18
100
AcDbVertex
100
AcDb2dVertex
 10
-102.3328392927182
 20
-127.1024031529112
 30
0.0
  0
SEQEND
  5
C2
330
BF
100
AcDbEntity
  8
\U+30EC\U+30A4\U+30E4\U+30FC 2
370
    18
  0
SPLINE
  5
C3
330
1F
100
AcDbEntity
  8
\U+30EC\U+30A4\U+30E4\U+30FC 2
 62
   250
420
  2234132
370
    18
100
AcDbSpline
210
0.0
220
0.0
230
1.0
 70
     8
 71
     3
 72
    11
 73
     7
 74
     0
 42
0.0000000001
 43
0.0000000001
 40
0.0
 40
0.0
 40
0.0
 40
0.0
 40
1.0
 40
1.0
 40
1.0
 40
2.0
 40
2.0
 40
2.0
 40
2.0
 10
-132.6154208400893
 20
-129.3727225754079
 30
0.0
 10
-123.0538965226425
 20
-129.7851007770359
 30
0.0
 10
-112.8961980381803
 20
-130.3404505356193
 30
0.0
 10
-112.5062129719791
 20
-130.2839509323888
 30
0.0
 10
-111.8922965515103
 20
-130.1947229004575
 30
0.0
 10
-109.6416141862339
 20
-127.0727753121927
 30
0.0
 10
-109.6416141862339
 20
-127.0727753121927
 30
0.0
  0
SPLINE
  5
C4
330
1F
100
AcDbEntity
  8
\U+30EC\U+30A4\U+30E4\U+30FC 2
 62
   250
420
  2234132
370
    18
100
AcDbSpline
210
0.0
220
0.0
230
1.0
 70
     8
 71
     3
 72
    11
 73
     7
 74
     0
 42
0.0000000001
 43
0.0000000001
 40
0.0
 40
0.0
 40
0.0
 40
0.0
 40
1.0
 40
1.0
 40
1.0
 40
2.0
 40
2.0
 40
2.0
 40
2.0
 10
-132.6004346648422
 20
-98.27106903608137
 30
0.0
 10
-122.5808846004743
 20
-99.53266383504693
 30
0.0
 10
-111.8444096926746
 20
-101.3892270168125
 30
0.0
 10
-110.927669179281
 20
-101.5642379829169
 30
0.0
 10
-109.5244808624632
 20
-101.8315775689348
 30
0.0
 10
-106.2795432842391
 20
-102.6346298563156
 30
0.0
 10
-104.0870830710723
 20
-107.7182161079639
 30
0.0
  0
SPLINE
  5
C5
330
1F
100
AcDbEntity
  8
\U+30EC\U+30A4\U+30E4\U+30FC 2
 62
   250
420
  2234132
370
    18
100
AcDbSpline
210
0.0
220
0.0
230
1.0
 70
     8
 71
     3
 72
     8
 73
     4
 74
     0
 42
0.0000000001
 43
0.0000000001
 40
0.0
 40
0.0
 40
0.0
 40
0.0
 40
1.0
 40
1.0
 40
1.0
 40
1.0
 10
-112.5062129719791
 20
-130.2839509323888
 30
0.0
 10
-112.8569239237396
 20
-115.3890707758414
 30
0.0
 10
-111.5415855997498
 20
-106.8266248082034
 30
0.0
 10
-108.5598534902339
 20
-102.4561737924532
 30
0.0
  0
SPLINE
  5
C6
330
1F
100
AcDbEntity
  8
\U+30EC\U+30A4\U+30E4\U+30FC 2
 62
   250
420
  2234132
370
    18
100
AcDbSpline
210
0.0
220
0.0
230
1.0
 70
    11
 71
     3
 72
    20
 73
    16
 74
     0
 42
0.0000000001
 43
0.0000000001
 40
0.0
 40
0.0
 40
0.0
 40
0.0
 40
1.0
 40
1.0
 40
1.0
 40
2.0
 40
2.0
 40
2.0
 40
3.0
 40
3.0
 40
3.0
 40
4.0
 40
4.0
 40
4.0
 40
5.0
 40
5.0
 40
5.0
 40
5.0
 10
-107.2441706564684
 20
-107.7182161079639
 30
0.0
 10
-107.2441706564684
 20
-107.7182161079639
 30
0.0
 10
-79.79397623080544
 20
-107.7182161079639
 30
0.0
 10
-79.79397623080544
 20
-107.7182161079639
 30
0.0
 10
-79.79397623080544
 20
-107.7182161079639
 30
0.0
 10
-79.79397623080544
 20
-127.0727753121927
 30
0.0
 10
-79.79397623080544
 20
-127.0727753121927
 30
0.0
 10
-79.79397623080544
 20
-127.0727753121927
 30
0.0
 10
-110.6644637105727
 20
-127.0727753121927
 30
0.0
 10
-110.6644637105727
 20
-127.0727753121927
 30
0.0
 10
-110.6644637105727
 20
-127.0727753121927
 30
0.0
 10
-110.6644637105727
 20
-123.3269205199609
 30
0.0
 10
-110.2259027659842
 20
-117.4406264907076
 30
0.0
 10
-109.7876863311715
 20
-111.5536434419027
 30
0.0
 10
-107.2441706564684
 20
-107.7182161079639
 30
0.0
 10
-107.2441706564684
 20
-107.7182161079639
 30
0.0
  0
SPLINE
  5
C7
330
1F
100
AcDbEntity
  8
\U+30EC\U+30A4\U+30E4\U+30FC 2
 62
   250
420
  2234132
370
    18
100
AcDbSpline
210
0.0
220
0.0
230
1.0
 70
    11
 71
     3
 72
    17
 73
    13
 74
     0
 42
0.0000000001
 43
0.0000000001
 40
0.0
 40
0.0
 40
0.0
 40
0.0
 40
1.0
 40
1.0
 40
1.0
 40
2.0
 40
2.0
 40
2.0
 40
3.0
 40
3.0
 40
3.0
 40
4.0
 40
4.0
 40
4.0
 40
4.0
 10
-99.1757517073221
 20
-120.3837735053343
 30
0.0
 10
-99.1757517073221
 20
-123.536382463645
 30
0.0
 10
-96.66255289288905
 20
-126.091955980501
 30
0.0
 10
-93.56299844005092
 20
-126.091955980501
 30
0.0
 10
-90.463099477437
 20
-126.091955980501
 30
0.0
 10
-87.94990066300394
 20
-123.536382463645
 30
0.0
 10
-87.94990066300394
 20
-120.3837735053343
 30
0.0
 10
-87.94990066300394
 20
-117.2308200372477
 30
0.0
 10
-90.463099477437
 20
-114.6755910301675
 30
0.0
 10
-93.56299844005092
 20
-114.6755910301675
 30
0.0
 10
-96.66255289288905
 20
-114.6755910301675
 30
0.0
 10
-99.1757517073221
 20
-117.2308200372477
 30
0.0
 10
-99.1757517073221
 20
-120.3837735053343
 30
0.0
  0
SPLINE
  5
C8
330
1F
100
AcDbEntity
  8
\U+30EC\U+30A4\U+30E4\U+30FC 2
 62
   250
420
  2234132
370
    18
100
AcDbSpline
210
0.0
220
0.0
230
1.0
 70
     8
 71
     3
 72
    17
 73
    13
 74
     0
 42
0.0000000001
 43
0.0000000001
 40
0.0
 40
0.0
 40
0.0
 40
0.0
 40
1.0
 40
1.0
 40
1.0
 40
2.0
 40
2.0
 40
2.0
 40
3.0
 40
3.0
 40
3.0
 40
4.0
 40
4.0
 40
4.0
 40
4.0
 10
-79.79948838721818
 20
-111.9343267441574
 30
0.0
 10
-79.0512131541889
 20
-114.3944710531179
 30
0.0
 10
-78.27709968797491
 20
-116.883898693021
 30
0.0
 10
-77.42581603198258
 20
-119.2685953610821
 30
0.0
 10
-73.12874559847697
 20
-131.3099010447098
 30
0.0
 10
-66.94582865226312
 20
-148.9694721520214
 30
0.0
 10
-67.77885329013826
 20
-152.0466334694327
 30
0.0
 10
-68.61222243778919
 20
-155.1237947868441
 30
0.0
 10
-69.57684981001846
 20
-158.735979786067
 30
0.0
 10
-82.24964191268053
 20
-158.735979786067
 30
0.0
 10
-94.92208950556682
 20
-158.735979786067
 30
0.0
 10
-102.2890865511921
 20
-158.735979786067
 30
0.0
 10
-102.2890865511921
 20
-158.735979786067
 30
0.0
  0
SPLINE
  5
C9
330
1F
100
AcDbEntity
  8
\U+30EC\U+30A4\U+30E4\U+30FC 2
 62
   250
420
  2234132
370
    18
100
AcDbSpline
210
0.0
220
0.0
230
1.0
 70
     8
 71
     3
 72
    11
 73
     7
 74
     0
 42
0.0000000001
 43
0.0000000001
 40
0.0
 40
0.0
 40
0.0
 40
0.0
 40
1.0
 40
1.0
 40
1.0
 40
2.0
 40
2.0
 40
2.0
 40
2.0
 10
-98.60558802837944
 20
-107.7182161079639
 30
0.0
 10
-98.1232743422648
 20
-103.303323331136
 30
0.0
 10
-98.16702708379093
 20
-92.51121009454522
 30
0.0
 10
-91.10733275817583
 20
-92.51121009454522
 30
0.0
 10
-86.26249178115431
 20
-92.51121009454522
 30
0.0
 10
-83.64800709263719
 20
-99.44274678356413
 30
0.0
 10
-81.09484514421177
 20
-107.6834206206085
 30
0.0
  0
SPLINE
  5
CA
330
1F
100
AcDbEntity
  8
\U+30EC\U+30A4\U+30E4\U+30FC 2
 62
   250
420
  2234132
370
    18
100
AcDbSpline
210
0.0
220
0.0
230
1.0
 70
     8
 71
     3
 72
    14
 73
    10
 74
     0
 42
0.0000000001
 43
0.0000000001
 40
0.0
 40
0.0
 40
0.0
 40
0.0
 40
1.0
 40
1.0
 40
1.0
 40
2.0
 40
2.0
 40
2.0
 40
3.0
 40
3.0
 40
3.0
 40
3.0
 10
-86.41545412160781
 20
-127.1623478538997
 30
0.0
 10
-86.41545412160781
 20
-127.1623478538997
 30
0.0
 10
-80.49539813432645
 20
-143.5289737726483
 30
0.0
 10
-79.88148171385767
 20
-145.3128453917208
 30
0.0
 10
-79.2675652933889
 20
-147.0963725010176
 30
0.0
 10
-79.35541528621692
 20
-147.5425126606737
 30
0.0
 10
-81.19716454762325
 20
-147.5425126606737
 30
0.0
 10
-83.03891380902955
 20
-147.5425126606737
 30
0.0
 10
-102.3769365440201
 20
-147.5425126606737
 30
0.0
 10
-102.3769365440201
 20
-147.5425126606737
 30
0.0
  0
SPLINE
  5
CB
330
1F
100
AcDbEntity
  8
\U+30EC\U+30A4\U+30E4\U+30FC 2
 62
   250
420
  2234132
370
    18
100
AcDbSpline
210
0.0
220
0.0
230
1.0
 70
     8
 71
     3
 72
    11
 73
     7
 74
     0
 42
0.0000000001
 43
0.0000000001
 40
0.0
 40
0.0
 40
0.0
 40
0.0
 40
1.0
 40
1.0
 40
1.0
 40
2.0
 40
2.0
 40
2.0
 40
2.0
 10
-119.1714436043075
 20
-375.6503589401603
 30
0.0
 10
-119.7557321840578
 20
-374.0449433849502
 30
0.0
 10
-121.3346204865317
 20
-372.6179838936025
 30
0.0
 10
-124.3752637677087
 20
-372.6179838936025
 30
0.0
 10
-127.4152180293341
 20
-372.6179838936025
 30
0.0
 10
-146.4759103948087
 20
-372.6179838936025
 30
0.0
 10
-146.4759103948087
 20
-372.6179838936025
 30
0.0
  0
SPLINE
  5
CC
330
1F
100
AcDbEntity
  8
\U+30EC\U+30A4\U+30E4\U+30FC 2
 62
   250
420
  2234132
370
    18
100
AcDbSpline
210
0.0
220
0.0
230
1.0
 70
     8
 71
     3
 72
    23
 73
    19
 74
     0
 42
0.0000000001
 43
0.0000000001
 40
0.0
 40
0.0
 40
0.0
 40
0.0
 40
1.0
 40
1.0
 40
1.0
 40
2.0
 40
2.0
 40
2.0
 40
3.0
 40
3.0
 40
3.0
 40
4.0
 40
4.0
 40
4.0
 40
5.0
 40
5.0
 40
5.0
 40
6.0
 40
6.0
 40
6.0
 40
6.0
 10
-34.90125185658248
 20
-324.1292664796191
 30
0.0
 10
-30.25691556907433
 20
-324.876508183321
 30
0.0
 10
-25.77759946417254
 20
-325.6664690992216
 30
0.0
 10
-21.7072164631408
 20
-326.4760670723426
 30
0.0
 10
-5.862178344947609
 20
-329.6272979915502
 30
0.0
 10
25.88543102399674
 20
-338.8436235136493
 30
0.0
 10
35.64883807006017
 20
-342.0547991338453
 30
0.0
 10
45.41293413567518
 20
-345.2652857344899
 30
0.0
 10
71.78136786533815
 20
-355.4930919583265
 30
0.0
 10
79.90904249592137
 20
-359.2389467505582
 30
0.0
 10
88.0356835971772
 20
-362.9851460525658
 30
0.0
 10
96.45481349808396
 20
-367.0286572910854
 30
0.0
 10
97.15657991138076
 20
-367.4444805904714
 30
0.0
 10
97.85800181490175
 20
-367.8606483996332
 30
0.0
 10
98.8522570278495
 20
-371.6071922114165
 30
0.0
 10
98.79334585618835
 20
-373.5095751933629
 30
0.0
 10
98.7351237040788
 20
-375.412647194861
 30
0.0
 10
96.04588039421391
 20
-385.5209085264964
 30
0.0
 10
96.04588039421391
 20
-385.5209085264964
 30
0.0
  0
SPLINE
  5
CD
330
1F
100
AcDbEntity
  8
\U+30EC\U+30A4\U+30E4\U+30FC 2
 62
   250
420
  2234132
370
    18
100
AcDbSpline
210
0.0
220
0.0
230
1.0
 70
     8
 71
     3
 72
    20
 73
    16
 74
     0
 42
0.0000000001
 43
0.0000000001
 40
0.0
 40
0.0
 40
0.0
 40
0.0
 40
1.0
 40
1.0
 40
1.0
 40
2.0
 40
2.0
 40
2.0
 40
3.0
 40
3.0
 40
3.0
 40
4.0
 40
4.0
 40
4.0
 40
5.0
 40
5.0
 40
5.0
 40
5.0
 10
131.0087995006639
 20
-385.5209085264964
 30
0.0
 10
131.6523437618511
 20
-384.4508611628735
 30
0.0
 10
131.7105659139607
 20
-380.466261096015
 30
0.0
 10
131.59343259019
 20
-378.4450222414189
 30
0.0
 10
131.4766437761951
 20
-376.423438877047
 30
0.0
 10
130.6580885489034
 20
-375.3530470036483
 30
0.0
 10
129.5473890317365
 20
-374.461111194112
 30
0.0
 10
128.4360004950181
 20
-373.5691753845757
 30
0.0
 10
91.07563785880258
 20
-355.8496595762755
 30
0.0
 10
80.31797559979141
 20
-351.3303803373814
 30
0.0
 10
69.56031334078025
 20
-346.8114456082631
 30
0.0
 10
39.74195871629445
 20
-335.3950806579296
 30
0.0
 10
24.83295365893944
 20
-330.9946572916851
 30
0.0
 10
14.02878258019579
 20
-327.8062193166916
 30
0.0
 10
1.351856360224167
 20
-324.2739605854535
 30
0.0
 10
-11.46287377006593
 20
-321.4620717954052
 30
0.0
  0
POLYLINE
  5
CE
330
1F
100
AcDbEntity
  8
\U+30EC\U+30A4\U+30E4\U+30FC 2
 62
   250
420
  2234132
370
    18
100
AcDb2dPolyline
 66
     1
 10
0.0
 20
0.0
 30
0.0
  0
VERTEX
  5
CF
330
CE
100
AcDbEntity
  8
\U+30EC\U+30A4\U+30E4\U+30FC 2
 62
   250
420
  2234132
370
    18
100
AcDbVertex
100
AcDb2dVertex
 10
-86.3713568703059
 20
-338.8436235136493
 30
0.0
  0
VERTEX
  5
D0
330
CE
100
AcDbEntity
  8
\U+30EC\U+30A4\U+30E4\U+30FC 2
 62
   250
420
  2234132
370
    18
100
AcDbVertex
100
AcDb2dVertex
 10
-86.62474381040398
 20
-324.122720793879
 30
0.0
  0
SEQEND
  5
D1
330
CE
100
AcDbEntity
  8
\U+30EC\U+30A4\U+30E4\U+30FC 2
370
    18
  0
POLYLINE
  5
D2
330
1F
100
AcDbEntity
  8
\U+30EC\U+30A4\U+30E4\U+30FC 2
 62
   250
420
  2234132
370
    18
100
AcDb2dPolyline
 66
     1
 10
0.0
 20
0.0
 30
0.0
  0
VERTEX
  5
D3
330
D2
100
AcDbEntity
  8
\U+30EC\U+30A4\U+30E4\U+30FC 2
 62
   250
420
  2234132
370
    18
100
AcDbVertex
100
AcDb2dVertex
 10
-78.59542672081058
 20
-338.2489996406251
 30
0.0
  0
VERTEX
  5
D4
330
D2
100
AcDbEntity
  8
\U+30EC\U+30A4\U+30E4\U+30FC 2
 62
   250
420
  2234132
370
    18
100
AcDbVertex
100
AcDb2dVertex
 10
-78.68103740009592
 20
-324.1675070647325
 30
0.0
  0
SEQEND
  5
D5
330
D2
100
AcDbEntity
  8
\U+30EC\U+30A4\U+30E4\U+30FC 2
370
    18
  0
POLYLINE
  5
D6
330
1F
100
AcDbEntity
  8
\U+30EC\U+30A4\U+30E4\U+30FC 2
 62
   250
420
  2234132
370
    18
100
AcDb2dPolyline
 66
     1
 10
0.0
 20
0.0
 30
0.0
  0
VERTEX
  5
D7
330
D6
100
AcDbEntity
  8
\U+30EC\U+30A4\U+30E4\U+30FC 2
 62
   250
420
  2234132
370
    18
100
AcDbVertex
100
AcDb2dVertex
 10
-11.47527612199459
 20
-344.7898622438912
 30
0.0
  0
VERTEX
  5
D8
330
D6
100
AcDbEntity
  8
\U+30EC\U+30A4\U+30E4\U+30FC 2
 62
   250
420
  2234132
370
    18
100
AcDbVertex
100
AcDb2dVertex
 10
-11.76776492164553
 20
-328.6757619908011
 30
0.0
  0
SEQEND
  5
D9
330
D6
100
AcDbEntity
  8
\U+30EC\U+30A4\U+30E4\U+30FC 2
370
    18
  0
POLYLINE
  5
DA
330
1F
100
AcDbEntity
  8
\U+30EC\U+30A4\U+30E4\U+30FC 2
 62
   250
420
  2234132
370
    18
100
AcDb2dPolyline
 66
     1
 10
0.0
 20
0.0
 30
0.0
  0
VERTEX
  5
DB
330
DA
100
AcDbEntity
  8
\U+30EC\U+30A4\U+30E4\U+30FC 2
 62
   250
420
  2234132
370
    18
100
AcDbVertex
100
AcDb2dVertex
 10
-2.939357407092912
 20
-346.5737338629637
 30
0.0
  0
VERTEX
  5
DC
330
DA
100
AcDbEntity
  8
\U+30EC\U+30A4\U+30E4\U+30FC 2
 62
   250
420
  2234132
370
    18
100
AcDbVertex
100
AcDb2dVertex
 10
-2.764001931212662
 20
-330.9946572916851
 30
0.0
  0
SEQEND
  5
DD
330
DA
100
AcDbEntity
  8
\U+30EC\U+30A4\U+30E4\U+30FC 2
370
    18
  0
POLYLINE
  5
DE
330
1F
100
AcDbEntity
  8
\U+30EC\U+30A4\U+30E4\U+30FC 2
 62
   250
420
  2234132
370
    18
100
AcDb2dPolyline
 66
     1
 10
0.0
 20
0.0
 30
0.0
  0
VERTEX
  5
DF
330
DE
100
AcDbEntity
  8
\U+30EC\U+30A4\U+30E4\U+30FC 2
 62
   250
420
  2234132
370
    18
100
AcDbVertex
100
AcDb2dVertex
 10
70.02746859675986
 20
-365.1848409710243
 30
0.0
  0
VERTEX
  5
E0
330
DE
100
AcDbEntity
  8
\U+30EC\U+30A4\U+30E4\U+30FC 2
 62
   250
420
  2234132
370
    18
100
AcDbVertex
100
AcDb2dVertex
 10
70.02746859675986
 20
-355.017323957952
 30
0.0
  0
SEQEND
  5
E1
330
DE
100
AcDbEntity
  8
\U+30EC\U+30A4\U+30E4\U+30FC 2
370
    18
  0
POLYLINE
  5
E2
330
1F
100
AcDbEntity
  8
\U+30EC\U+30A4\U+30E4\U+30FC 2
 62
   250
420
  2234132
370
    18
100
AcDb2dPolyline
 66
     1
 10
0.0
 20
0.0
 30
0.0
  0
VERTEX
  5
E3
330
E2
100
AcDbEntity
  8
\U+30EC\U+30A4\U+30E4\U+30FC 2
 62
   250
420
  2234132
370
    18
100
AcDbVertex
100
AcDb2dVertex
 10
78.85656513086407
 20
-368.217560527358
 30
0.0
  0
VERTEX
  5
E4
330
E2
100
AcDbEntity
  8
\U+30EC\U+30A4\U+30E4\U+30FC 2
 62
   250
420
  2234132
370
    18
100
AcDbVertex
100
AcDb2dVertex
 10
78.85656513086407
 20
-358.8224344316207
 30
0.0
  0
SEQEND
  5
E5
330
E2
100
AcDbEntity
  8
\U+30EC\U+30A4\U+30E4\U+30FC 2
370
    18
  0
SPLINE
  5
E6
330
1F
100
AcDbEntity
  8
\U+30EC\U+30A4\U+30E4\U+30FC 2
 62
   250
420
  2234132
370
    18
100
AcDbSpline
210
0.0
220
0.0
230
1.0
 70
     8
 71
     3
 72
    29
 73
    25
 74
     0
 42
0.0000000001
 43
0.0000000001
 40
0.0
 40
0.0
 40
0.0
 40
0.0
 40
1.0
 40
1.0
 40
1.0
 40
2.0
 40
2.0
 40
2.0
 40
3.0
 40
3.0
 40
3.0
 40
4.0
 40
4.0
 40
4.0
 40
5.0
 40
5.0
 40
5.0
 40
6.0
 40
6.0
 40
6.0
 40
7.0
 40
7.0
 40
7.0
 40
8.0
 40
8.0
 40
8.0
 40
8.0
 10
-97.889696714275
 20
-341.4601752608212
 30
0.0
 10
-94.61547580510822
 20
-341.8163983689944
 30
0.0
 10
-64.32927690509122
 20
-349.427997355435
 30
0.0
 10
-57.6054796108774
 20
-352.2822608479062
 30
0.0
 10
-50.88202682643936
 20
-355.1361798306017
 30
0.0
 10
-41.29879839311733
 20
-359.9066066960512
 30
0.0
 10
-39.13010935448045
 20
-361.8558430075059
 30
0.0
 10
-34.10198917673537
 20
-366.3747777366243
 30
0.0
 10
-29.83385756439663
 20
-371.0714795100535
 30
0.0
 10
-29.83385756439663
 20
-372.6179838936025
 30
0.0
 10
-29.83385756439663
 20
-374.1637992575999
 30
0.0
 10
-29.83385756439663
 20
-385.7586202717957
 30
0.0
 10
-29.83385756439663
 20
-385.7586202717957
 30
0.0
 10
-29.83385756439663
 20
-385.7586202717957
 30
0.0
 10
27.99004124433553
 20
-385.7586202717957
 30
0.0
 10
27.99004124433553
 20
-385.7586202717957
 30
0.0
 10
27.99004124433553
 20
-385.7586202717957
 30
0.0
 10
27.99004124433553
 20
-380.7046618608659
 30
0.0
 10
27.99004124433553
 20
-378.1477103049068
 30
0.0
 10
27.99004124433553
 20
-375.5907587489476
 30
0.0
 10
19.57091134342876
 20
-368.5152169736459
 30
0.0
 10
11.38535907051179
 20
-361.9743543703798
 30
0.0
 10
3.199806797594816
 20
-355.433147257338
 30
0.0
 10
-10.13030995728634
 20
-346.2171662450147
 30
0.0
 10
-14.69058585950023
 20
-344.2548385620797
 30
0.0
  0
SPLINE
  5
E7
330
1F
100
AcDbEntity
  8
\U+30EC\U+30A4\U+30E4\U+30FC 2
 62
   250
420
  2234132
370
    18
100
AcDbSpline
210
0.0
220
0.0
230
1.0
 70
     8
 71
     3
 72
    11
 73
     7
 74
     0
 42
0.0000000001
 43
0.0000000001
 40
0.0
 40
0.0
 40
0.0
 40
0.0
 40
1.0
 40
1.0
 40
1.0
 40
2.0
 40
2.0
 40
2.0
 40
2.0
 10
17.87523422696002
 20
-385.2239410997601
 30
0.0
 10
17.87523422696002
 20
-381.6561978616149
 30
0.0
 10
15.65314617307473
 20
-375.828470494247
 30
0.0
 10
13.31461381497033
 20
-372.9745515115515
 30
0.0
 10
10.97608145686594
 20
-370.1202880190802
 30
0.0
 10
-17.09905370209125
 20
-346.6853550303217
 30
0.0
 10
-28.67527118839411
 20
-342.4041320465026
 30
0.0
  0
SPLINE
  5
E8
330
1F
100
AcDbEntity
  8
\U+30EC\U+30A4\U+30E4\U+30FC 2
 62
   250
420
  2234132
370
    18
100
AcDbSpline
210
0.0
220
0.0
230
1.0
 70
     8
 71
     3
 72
    11
 73
     7
 74
     0
 42
0.0000000001
 43
0.0000000001
 40
0.0
 40
0.0
 40
0.0
 40
0.0
 40
1.0
 40
1.0
 40
1.0
 40
2.0
 40
2.0
 40
2.0
 40
2.0
 10
11.15178144252198
 20
-370.8337677647541
 30
0.0
 10
7.731143878641825
 20
-369.0498961456815
 30
0.0
 10
-2.617240766723495
 20
-366.0175210991237
 30
0.0
 10
-4.02042908354129
 20
-364.8582457035695
 30
0.0
 10
-5.423961910134882
 20
-363.6986257982397
 30
0.0
 10
-26.47178666240182
 20
-345.7710260853586
 30
0.0
 10
-39.62689245117853
 20
-341.311691547453
 30
0.0
  0
POLYLINE
  5
E9
330
1F
100
AcDbEntity
  8
\U+30EC\U+30A4\U+30E4\U+30FC 2
 62
   250
420
  2234132
370
    18
100
AcDb2dPolyline
 66
     1
 10
0.0
 20
0.0
 30
0.0
  0
VERTEX
  5
EA
330
E9
100
AcDbEntity
  8
\U+30EC\U+30A4\U+30E4\U+30FC 2
 62
   250
420
  2234132
370
    18
100
AcDbVertex
100
AcDb2dVertex
 10
-64.18320476015364
 20
-350.0522490691776
 30
0.0
  0
VERTEX
  5
EB
330
E9
100
AcDbEntity
  8
\U+30EC\U+30A4\U+30E4\U+30FC 2
 62
   250
420
  2234132
370
    18
100
AcDbVertex
100
AcDb2dVertex
 10
-64.18320476015364
 20
-338.903223704862
 30
0.0
  0
SEQEND
  5
EC
330
E9
100
AcDbEntity
  8
\U+30EC\U+30A4\U+30E4\U+30FC 2
370
    18
  0
POLYLINE
  5
ED
330
1F
100
AcDbEntity
  8
\U+30EC\U+30A4\U+30E4\U+30FC 2
 62
   250
420
  2234132
370
    18
100
AcDb2dPolyline
 66
     1
 10
0.0
 20
0.0
 30
0.0
  0
VERTEX
  5
EE
330
ED
100
AcDbEntity
  8
\U+30EC\U+30A4\U+30E4\U+30FC 2
 62
   250
420
  2234132
370
    18
100
AcDbVertex
100
AcDb2dVertex
 10
-56.02693581817935
 20
-352.9065125616489
 30
0.0
  0
VERTEX
  5
EF
330
ED
100
AcDbEntity
  8
\U+30EC\U+30A4\U+30E4\U+30FC 2
 62
   250
420
  2234132
370
    18
100
AcDbVertex
100
AcDb2dVertex
 10
-56.02693581817935
 20
-339.6170479603117
 30
0.0
  0
SEQEND
  5
F0
330
ED
100
AcDbEntity
  8
\U+30EC\U+30A4\U+30E4\U+30FC 2
370
    18
  0
POLYLINE
  5
F1
330
1F
100
AcDbEntity
  8
\U+30EC\U+30A4\U+30E4\U+30FC 2
 62
   250
420
  2234132
370
    18
100
AcDb2dPolyline
 66
     1
 10
0.0
 20
0.0
 30
0.0
  0
VERTEX
  5
F2
330
F1
100
AcDbEntity
  8
\U+30EC\U+30A4\U+30E4\U+30FC 2
 62
   250
420
  2234132
370
    18
100
AcDbVertex
100
AcDb2dVertex
 10
-13.93059729409388
 20
-356.830823417743
 30
0.0
  0
VERTEX
  5
F3
330
F1
100
AcDbEntity
  8
\U+30EC\U+30A4\U+30E4\U+30FC 2
 62
   250
420
  2234132
370
    18
100
AcDbVertex
100
AcDb2dVertex
 10
-13.93059729409388
 20
-370.9233403064611
 30
0.0
  0
VERTEX
  5
F4
330
F1
100
AcDbEntity
  8
\U+30EC\U+30A4\U+30E4\U+30FC 2
 62
   250
420
  2234132
370
    18
100
AcDbVertex
100
AcDb2dVertex
 10
-22.43757718782868
 20
-369.0498961456815
 30
0.0
  0
VERTEX
  5
F5
330
F1
100
AcDbEntity
  8
\U+30EC\U+30A4\U+30E4\U+30FC 2
 62
   250
420
  2234132
370
    18
100
AcDbVertex
100
AcDb2dVertex
 10
-22.43757718782868
 20
-350.6765007829202
 30
0.0
  0
SEQEND
  5
F6
330
F1
100
AcDbEntity
  8
\U+30EC\U+30A4\U+30E4\U+30FC 2
370
    18
  0
SPLINE
  5
F7
330
1F
100
AcDbEntity
  8
\U+30EC\U+30A4\U+30E4\U+30FC 2
 62
   250
420
  2234132
370
    18
100
AcDbSpline
210
0.0
220
0.0
230
1.0
 70
     8
 71
     3
 72
    80
 73
    76
 74
     0
 42
0.0000000001
 43
0.0000000001
 40
0.0
 40
0.0
 40
0.0
 40
0.0
 40
1.0
 40
1.0
 40
1.0
 40
2.0
 40
2.0
 40
2.0
 40
3.0
 40
3.0
 40
3.0
 40
4.0
 40
4.0
 40
4.0
 40
5.0
 40
5.0
 40
5.0
 40
6.0
 40
6.0
 40
6.0
 40
7.0
 40
7.0
 40
7.0
 40
8.0
 40
8.0
 40
8.0
 40
9.0
 40
9.0
 40
9.0
 40
10.0
 40
10.0
 40
10.0
 40
11.0
 40
11.0
 40
11.0
 40
12.0
 40
12.0
 40
12.0
 40
13.0
 40
13.0
 40
13.0
 40
14.0
 40
14.0
 40
14.0
 40
15.0
 40
15.0
 40
15.0
 40
16.0
 40
16.0
 40
16.0
 40
17.0
 40
17.0
 40
17.0
 40
18.0
 40
18.0
 40
18.0
 40
19.0
 40
19.0
 40
19.0
 40
20.0
 40
20.0
 40
20.0
 40
21.0
 40
21.0
 40
21.0
 40
22.0
 40
22.0
 40
22.0
 40
23.0
 40
23.0
 40
23.0
 40
24.0
 40
24.0
 40
24.0
 40
25.0
 40
25.0
 40
25.0
 40
25.0
 10
-148.2368721137908
 20
-66.18480655752938
 30
0.0
 10
-136.9825990129695
 20
-66.18480655752938
 30
0.0
 10
4.668968736477578
 20
-65.8775038375192
 30
0.0
 10
6.08507616988773
 20
-66.18480655752938
 30
0.0
 10
9.60923892139464
 20
-66.94927375002108
 30
0.0
 10
11.08701360467231
 20
-69.06594181251275
 30
0.0
 10
11.76914296074872
 20
-69.7714978333433
 30
0.0
 10
12.0680051912519
 20
-70.08052310223246
 30
0.0
 10
12.39046634139711
 20
-71.34108437187065
 30
0.0
 10
13.19024578590792
 20
-72.0645549010426
 30
0.0
 10
14.21567913356521
 20
-72.99197521748589
 30
0.0
 10
15.85210056859701
 20
-73.10118481641327
 30
0.0
 10
16.71423628252693
 20
-73.29927793749607
 30
0.0
 10
16.95212028271418
 20
-73.35405499184766
 30
0.0
 10
17.28905084344284
 20
-73.67307104423492
 30
0.0
 10
17.79392991987212
 20
-73.67617163221708
 30
0.0
 10
20.54604626381981
 20
-73.69374163078268
 30
0.0
 10
26.60321714186806
 20
-73.06397776062728
 30
0.0
 10
28.76449922032532
 20
-73.06397776062728
 30
0.0
 10
31.32231205072398
 20
-73.06397776062728
 30
0.0
 10
94.24478328635155
 20
-75.53342383353423
 30
0.0
 10
101.7476894385284
 20
-75.53342383353423
 30
0.0
 10
109.2509401004811
 20
-75.53342383353423
 30
0.0
 10
110.2737896248199
 20
-72.711199750212
 30
0.0
 10
111.6380483369727
 20
-72.711199750212
 30
0.0
 10
113.0019625393497
 20
-72.711199750212
 30
0.0
 10
116.9242063367891
 20
-72.53481074500436
 30
0.0
 10
119.3113145732808
 20
-72.18203273458909
 30
0.0
 10
121.6987673195482
 20
-71.82925472417382
 30
0.0
 10
128.3491840315175
 20
-68.47786362522868
 30
0.0
 10
130.0541629119327
 20
-63.53897147941481
 30
0.0
 10
131.7594863021237
 20
-58.60007933360093
 30
0.0
 10
133.2942773532957
 20
-52.07368614091831
 30
0.0
 10
134.4880037264294
 20
-39.72645577638362
 30
0.0
 10
135.6813855897873
 20
-27.37922541184893
 30
0.0
 10
141.4791406066611
 20
31.18192431708704
 30
0.0
 10
146.0835137601769
 20
65.04861331695362
 30
0.0
 10
150.6875424039169
 20
98.9153023168202
 30
0.0
 10
159.7250673523777
 20
163.6500672280235
 30
0.0
 10
163.3059019620031
 20
187.2861939258471
 30
0.0
 10
166.8870810814043
 20
210.9223206236706
 30
0.0
 10
171.4911097251443
 20
225.386219050697
 30
0.0
 10
171.8321744031825
 20
234.0292803058713
 30
0.0
 10
172.1732390812207
 20
242.6723415610455
 30
0.0
 10
170.979512708087
 20
250.4334577901816
 30
0.0
 10
169.7857863349533
 20
257.4890179984872
 30
0.0
 10
168.5920599618196
 20
264.5445782067927
 30
0.0
 10
168.2509952837814
 20
269.6598593578142
 30
0.0
 10
167.3986780984616
 20
272.1293054307212
 30
0.0
 10
166.5460164033661
 20
274.5987515036281
 30
0.0
 10
163.8174989790604
 20
277.7737535973656
 30
0.0
 10
161.6009230815879
 20
278.6556986234038
 30
0.0
 10
159.3840026743395
 20
279.537643649442
 30
0.0
 10
155.8031680647142
 20
280.2431996702725
 30
0.0
 10
151.3696717599933
 20
280.9487556911031
 30
0.0
 10
146.9358309454966
 20
281.6543117119336
 30
0.0
 10
143.8665933529285
 20
282.0070897223489
 30
0.0
 10
143.8665933529285
 20
282.0070897223489
 30
0.0
 10
143.8665933529285
 20
282.0070897223489
 30
0.0
 10
143.1844639968521
 20
292.9432080452225
 30
0.0
 10
137.0456443019402
 20
312.1696096128551
 30
0.0
 10
130.9068246070282
 20
331.3960111804877
 30
0.0
 10
119.3113145732808
 20
356.090471909557
 30
0.0
 10
110.2737896248199
 20
370.5543703365834
 30
0.0
 10
101.2360924214711
 20
385.0182687636098
 30
0.0
 10
90.83430876085737
 20
392.4266069823306
 30
0.0
 10
68.32541804943888
 20
400.5405012218819
 30
0.0
 10
45.81669959290829
 20
408.6543954614333
 30
0.0
 10
7.278802543021455
 20
407.0668944145646
 30
0.0
 10
-4.146175151706892
 20
406.7141164041493
 30
0.0
 10
-15.57115284643524
 20
406.361338393734
 30
0.0
 10
-56.15526570966342
 20
405.6557823729034
 30
0.0
 10
-76.78847294675967
 20
404.7738373468653
 30
0.0
 10
-97.42150792896801
 20
403.8918923208271
 30
0.0
 10
-127.4333047925634
 20
404.9502263520729
 30
0.0
 10
-148.0665120296596
 20
404.9502263520729
 30
0.0
  0
SPLINE
  5
F8
330
1F
100
AcDbEntity
  8
\U+30EC\U+30A4\U+30E4\U+30FC 2
 62
   250
420
  2234132
370
    18
100
AcDbSpline
210
0.0
220
0.0
230
1.0
 70
     8
 71
     3
 72
    44
 73
    40
 74
     0
 42
0.0000000001
 43
0.0000000001
 40
0.0
 40
0.0
 40
0.0
 40
0.0
 40
1.0
 40
1.0
 40
1.0
 40
2.0
 40
2.0
 40
2.0
 40
3.0
 40
3.0
 40
3.0
 40
4.0
 40
4.0
 40
4.0
 40
5.0
 40
5.0
 40
5.0
 40
6.0
 40
6.0
 40
6.0
 40
7.0
 40
7.0
 40
7.0
 40
8.0
 40
8.0
 40
8.0
 40
9.0
 40
9.0
 40
9.0
 40
10.0
 40
10.0
 40
10.0
 40
11.0
 40
11.0
 40
11.0
 40
12.0
 40
12.0
 40
12.0
 40
13.0
 40
13.0
 40
13.0
 40
13.0
 10
11.76914296074872
 20
-69.7714978333433
 30
0.0
 10
11.76914296074872
 20
-67.94869660960578
 30
0.0
 10
13.58815457695249
 20
-62.77450428692311
 30
0.0
 10
15.06592926023016
 20
-56.83618928152455
 30
0.0
 10
16.54370394350783
 20
-50.89787427612598
 30
0.0
 10
18.76062435075617
 20
-39.31476659430719
 30
0.0
 10
21.88687831121851
 20
-30.67170533913291
 30
0.0
 10
25.01296001679294
 20
-22.02864408395863
 30
0.0
 10
29.73067688654568
 20
-10.32840307836914
 30
0.0
 10
31.15177971170487
 20
1.666049275750273
 30
0.0
 10
32.57288253686407
 20
13.66050162986969
 30
0.0
 10
35.47158779041303
 20
33.47463687501054
 30
0.0
 10
37.46113174563591
 20
44.70496654641406
 30
0.0
 10
39.45050344597089
 20
55.93529621781757
 30
0.0
 10
44.11137620271725
 20
77.21945467628068
 30
0.0
 10
46.27145249695923
 20
87.09723896790842
 30
0.0
 10
48.43135653631332
 20
96.97502325953619
 30
0.0
 10
51.44392227076291
 20
108.2635750830492
 30
0.0
 10
53.49013808410426
 20
121.6105728169444
 30
0.0
 10
55.5363538974456
 20
134.9575705508396
 30
0.0
 10
57.92363438882516
 20
147.1280674003908
 30
0.0
 10
60.08371068306713
 20
162.2389551863624
 30
0.0
 10
62.24361472242121
 20
177.3496707174461
 30
0.0
 10
64.85809941093834
 20
192.5189529104151
 30
0.0
 10
67.70013280636883
 20
204.101888337346
 30
0.0
 10
70.54233845668723
 20
215.6848237642769
 30
0.0
 10
74.06667346308204
 20
227.7969262068307
 30
0.0
 10
77.76119629872015
 20
239.2622115453272
 30
0.0
 10
81.45571913435826
 20
250.7274968838236
 30
0.0
 10
84.52512898181423
 20
258.1945740193177
 30
0.0
 10
89.86813109463701
 20
265.9556902484538
 30
0.0
 10
95.2113054623477
 20
273.7168064775899
 30
0.0
 10
104.134969929908
 20
278.5380485349694
 30
0.0
 10
110.160445908583
 20
280.4195886754802
 30
0.0
 10
116.1855773774821
 20
282.3011288159909
 30
0.0
 10
124.3135965178412
 20
282.7713846599527
 30
0.0
 10
129.9976633087022
 20
282.7713846599527
 30
0.0
 10
135.6817300995631
 20
282.7713846599527
 30
0.0
 10
143.8665933529285
 20
282.0070897223489
 30
0.0
 10
143.8665933529285
 20
282.0070897223489
 30
0.0
  0
SPLINE
  5
F9
330
1F
100
AcDbEntity
  8
\U+30EC\U+30A4\U+30E4\U+30FC 2
 62
   250
420
  2234132
370
    18
100
AcDbSpline
210
0.0
220
0.0
230
1.0
 70
     8
 71
     3
 72
    77
 73
    73
 74
     0
 42
0.0000000001
 43
0.0000000001
 40
0.0
 40
0.0
 40
0.0
 40
0.0
 40
1.0
 40
1.0
 40
1.0
 40
2.0
 40
2.0
 40
2.0
 40
3.0
 40
3.0
 40
3.0
 40
4.0
 40
4.0
 40
4.0
 40
5.0
 40
5.0
 40
5.0
 40
6.0
 40
6.0
 40
6.0
 40
7.0
 40
7.0
 40
7.0
 40
8.0
 40
8.0
 40
8.0
 40
9.0
 40
9.0
 40
9.0
 40
10.0
 40
10.0
 40
10.0
 40
11.0
 40
11.0
 40
11.0
 40
12.0
 40
12.0
 40
12.0
 40
13.0
 40
13.0
 40
13.0
 40
14.0
 40
14.0
 40
14.0
 40
15.0
 40
15.0
 40
15.0
 40
16.0
 40
16.0
 40
16.0
 40
17.0
 40
17.0
 40
17.0
 40
18.0
 40
18.0
 40
18.0
 40
19.0
 40
19.0
 40
19.0
 40
20.0
 40
20.0
 40
20.0
 40
21.0
 40
21.0
 40
21.0
 40
22.0
 40
22.0
 40
22.0
 40
23.0
 40
23.0
 40
23.0
 40
24.0
 40
24.0
 40
24.0
 40
24.0
 10
16.71423628252693
 20
-73.29927793749607
 30
0.0
 10
17.05564547034093
 20
-72.65228857855087
 30
0.0
 10
17.56724248739824
 20
-71.71177689062732
 30
0.0
 10
18.24919958858676
 20
-67.94869660960578
 30
0.0
 10
18.93132894466317
 20
-64.18561632858422
 30
0.0
 10
20.295587656816
 20
-57.18896729193983
 30
0.0
 10
22.17127113113824
 20
-48.72229504197318
 30
0.0
 10
24.04695460546048
 20
-40.25562279200653
 30
0.0
 10
24.21748694447959
 20
-38.37425490638365
 30
0.0
 10
28.36676268416864
 20
-27.08535857309479
 30
0.0
 10
32.5162106787456
 20
-15.79646223980593
 30
0.0
 10
34.73295883110605
 20
-5.095644093801133
 30
0.0
 10
36.26757762739008
 20
5.722996395525957
 30
0.0
 10
37.80236867856202
 20
16.54163688485305
 30
0.0
 10
39.67822440777216
 20
30.35854595293419
 30
0.0
 10
42.17902087027655
 20
42.05913146829948
 30
0.0
 10
44.67998958766884
 20
53.75971698366476
 30
0.0
 10
47.69238306723053
 20
70.57558365005156
 30
0.0
 10
51.33023404475018
 20
87.50892814998485
 30
0.0
 10
54.96825727715772
 20
104.4422726499181
 30
0.0
 10
58.43540366077036
 20
122.5517735244195
 30
0.0
 10
60.65215181313081
 20
135.7220377433313
 30
0.0
 10
62.86889996549126
 20
148.892301962243
 30
0.0
 10
65.54074553167845
 20
166.4137246494604
 30
0.0
 10
67.87100965516373
 20
180.1720670556562
 30
0.0
 10
70.20144603353693
 20
193.930409461852
 30
0.0
 10
71.62237660380822
 20
202.1030426181766
 30
0.0
 10
76.73800226460553
 20
218.8599981129022
 30
0.0
 10
81.85362792540283
 20
235.6169536076279
 30
0.0
 10
86.23062462689316
 20
250.3159799566351
 30
0.0
 10
92.25558384090446
 20
260.4878033419049
 30
0.0
 10
98.28071530980365
 20
270.6596267271747
 30
0.0
 10
108.6821544606416
 20
275.0104406857045
 30
0.0
 10
112.0359571280173
 20
275.8923857117427
 30
0.0
 10
115.389759795393
 20
276.7743307377809
 30
0.0
 10
121.9261437715737
 20
277.8326647690267
 30
0.0
 10
129.8271309696831
 20
277.6562757638191
 30
0.0
 10
137.7281181677924
 20
277.4798867586115
 30
0.0
 10
147.5046165853361
 20
276.8918085713274
 30
0.0
 10
151.8244246640442
 20
275.951124628516
 30
0.0
 10
156.1445772525282
 20
275.0104406857045
 30
0.0
 10
161.3732021197866
 20
272.0707387688358
 30
0.0
 10
161.9988318726325
 20
269.2485146855136
 30
0.0
 10
162.6244616254783
 20
266.4262906021914
 30
0.0
 10
163.0792145295293
 20
262.8983382431507
 30
0.0
 10
162.2833969474401
 20
256.6659841441101
 30
0.0
 10
161.4872348555752
 20
250.4336300450695
 30
0.0
 10
159.2703144483268
 20
238.0863996805348
 30
0.0
 10
157.622179680918
 20
226.6211143420383
 30
0.0
 10
155.9740449135091
 20
215.1558290035418
 30
0.0
 10
154.4960979753435
 20
205.1603946234797
 30
0.0
 10
153.2455274892034
 20
193.8714982901908
 30
0.0
 10
151.9949570030633
 20
182.582601956902
 30
0.0
 10
149.7783811055908
 20
167.7660977743483
 30
0.0
 10
148.9257194104952
 20
159.0641253475128
 30
0.0
 10
148.0730577153997
 20
150.3621529206774
 30
0.0
 10
147.1063632845157
 20
138.5439173168777
 30
0.0
 10
145.1171638390686
 20
123.6097630458896
 30
0.0
 10
143.1279643936215
 20
108.6756087749015
 30
0.0
 10
140.7401671375783
 20
91.44839743621404
 30
0.0
 10
138.6372794661185
 20
72.51586270733559
 30
0.0
 10
136.5343917946587
 20
53.58332797845712
 30
0.0
 10
134.147283558167
 20
36.70855014040918
 30
0.0
 10
132.0440513769314
 20
19.30494979651412
 30
0.0
 10
129.9408191956958
 20
1.901349452619056
 30
0.0
 10
127.9516197502487
 20
-13.20919382357671
 30
0.0
 10
125.9052316820195
 20
-23.85144530769616
 30
0.0
 10
123.8588436137902
 20
-34.49369679181561
 30
0.0
 10
120.5622295691967
 20
-47.25261633842673
 30
0.0
 10
118.2316209359356
 20
-56.130633260694
 30
0.0
 10
115.9013568124503
 20
-65.00865018296126
 30
0.0
 10
111.6380483369727
 20
-72.711199750212
 30
0.0
 10
111.6380483369727
 20
-72.711199750212
 30
0.0
  0
SPLINE
  5
FA
330
1F
100
AcDbEntity
  8
\U+30EC\U+30A4\U+30E4\U+30FC 2
 62
   250
420
  2234132
370
    18
100
AcDbSpline
210
0.0
220
0.0
230
1.0
 70
     8
 71
     3
 72
    17
 73
    13
 74
     0
 42
0.0000000001
 43
0.0000000001
 40
0.0
 40
0.0
 40
0.0
 40
0.0
 40
1.0
 40
1.0
 40
1.0
 40
2.0
 40
2.0
 40
2.0
 40
3.0
 40
3.0
 40
3.0
 40
4.0
 40
4.0
 40
4.0
 40
4.0
 10
-148.1090589869704
 20
-25.52714085716872
 30
0.0
 10
-145.124915309024
 20
-25.52714085716872
 30
0.0
 10
-117.3725858099879
 20
-25.96811337018782
 30
0.0
 10
-104.6686155726162
 20
-25.83582161628209
 30
0.0
 10
-91.9648175901325
 20
-25.70352986237636
 30
0.0
 10
-67.11136559953319
 20
-26.14450237539546
 30
0.0
 10
-55.72893486211566
 20
-26.27679412930119
 30
0.0
 10
-44.34667637958604
 20
-26.40908588320692
 30
0.0
 10
-20.7720446767421
 20
-26.62957213971646
 30
0.0
 10
-8.45185832960741
 20
-26.8059611449241
 30
0.0
 10
3.868328017527282
 20
-26.98235015013174
 30
0.0
 10
23.05201037296115
 20
-27.29103090924511
 30
0.0
 10
23.05201037296115
 20
-27.29103090924511
 30
0.0
  0
SPLINE
  5
FB
330
1F
100
AcDbEntity
  8
\U+30EC\U+30A4\U+30E4\U+30FC 2
 62
   250
420
  2234132
370
    18
100
AcDbSpline
210
0.0
220
0.0
230
1.0
 70
     8
 71
     3
 72
    23
 73
    19
 74
     0
 42
0.0000000001
 43
0.0000000001
 40
0.0
 40
0.0
 40
0.0
 40
0.0
 40
1.0
 40
1.0
 40
1.0
 40
2.0
 40
2.0
 40
2.0
 40
3.0
 40
3.0
 40
3.0
 40
4.0
 40
4.0
 40
4.0
 40
5.0
 40
5.0
 40
5.0
 40
6.0
 40
6.0
 40
6.0
 40
6.0
 10
-148.0665120296596
 20
90.93369983117456
 30
0.0
 10
-135.5757933435058
 20
90.93369983117456
 30
0.0
 10
-125.7281536572602
 20
90.44863006685355
 30
0.0
 10
-111.7026439199345
 20
90.27224106164591
 30
0.0
 10
-97.67730643749667
 20
90.09585205643828
 30
0.0
 10
-81.09398386977229
 20
89.96356030253256
 30
0.0
 10
-68.34763892997773
 20
89.47849053821155
 30
0.0
 10
-55.60112173529528
 20
88.99342077389053
 30
0.0
 10
-39.0177991675709
 20
88.3319620043619
 30
0.0
 10
-27.84861998137121
 20
87.84689224004089
 30
0.0
 10
-16.67944079517152
 20
87.36182247571989
 30
0.0
 10
-8.494405286918237
 20
87.53821148092753
 30
0.0
 10
0.4578534920331084
 20
86.39168294707787
 30
0.0
 10
9.410284525872353
 20
85.24515441322822
 30
0.0
 10
20.92052839011025
 20
83.04029184813274
 30
0.0
 10
27.82657135572025
 20
78.63056671794178
 30
0.0
 10
34.73278657621815
 20
74.22084158775083
 30
0.0
 10
41.3830310332995
 20
68.40000441589875
 30
0.0
 10
40.01894457603456
 20
57.55208059562899
 30
0.0
  0
SPLINE
  5
FC
330
1F
100
AcDbEntity
  8
\U+30EC\U+30A4\U+30E4\U+30FC 2
 62
   250
420
  2234132
370
    18
100
AcDbSpline
210
0.0
220
0.0
230
1.0
 70
     8
 71
     3
 72
    32
 73
    28
 74
     0
 42
0.0000000001
 43
0.0000000001
 40
0.0
 40
0.0
 40
0.0
 40
0.0
 40
1.0
 40
1.0
 40
1.0
 40
2.0
 40
2.0
 40
2.0
 40
3.0
 40
3.0
 40
3.0
 40
4.0
 40
4.0
 40
4.0
 40
5.0
 40
5.0
 40
5.0
 40
6.0
 40
6.0
 40
6.0
 40
7.0
 40
7.0
 40
7.0
 40
8.0
 40
8.0
 40
8.0
 40
9.0
 40
9.0
 40
9.0
 40
9.0
 10
-8.196059821078755
 20
87.18543347051225
 30
0.0
 10
-8.196059821078755
 20
87.18543347051225
 30
0.0
 10
-6.576174855285169
 20
97.9451627881782
 30
0.0
 10
-5.552980821170547
 20
105.2212092529933
 30
0.0
 10
-4.529786787055926
 20
112.4972557178084
 30
0.0
 10
-1.716175448128615
 20
126.3878898779099
 30
0.0
 10
0.1167888139949012
 20
136.7066466825567
 30
0.0
 10
1.949925331006316
 20
147.0254034872036
 30
0.0
 10
5.317680644301764
 20
164.4438177514579
 30
0.0
 10
8.81342133930549
 20
179.4809804454091
 30
0.0
 10
12.30916203430922
 20
194.5181431393602
 30
0.0
 10
19.51372272064659
 20
221.9907307004499
 30
0.0
 10
23.05201037296115
 20
233.5442105415503
 30
0.0
 10
26.5902980252757
 20
245.0976903826506
 30
0.0
 10
33.15544856773539
 20
264.0595084424717
 30
0.0
 10
36.99208168588942
 20
275.612988283572
 30
0.0
 10
40.82888705893136
 20
287.1664681246723
 30
0.0
 10
48.58759171963688
 20
309.5237745347405
 30
0.0
 10
54.85422454136919
 20
320.4157956063122
 30
0.0
 10
61.1210296179894
 20
331.3078166778839
 30
0.0
 10
67.17441088850389
 20
341.5824762312288
 30
0.0
 10
78.8979063039596
 20
349.6522732194783
 30
0.0
 10
90.62122946452743
 20
357.7220702077277
 30
0.0
 10
97.39945930331706
 20
360.7647805475595
 30
0.0
 10
103.0266819811717
 20
361.7790173275034
 30
0.0
 10
108.6539046590263
 20
362.7932541074473
 30
0.0
 10
114.7500051417395
 20
362.0876980866168
 30
0.0
 10
117.3079902270261
 20
358.1630427207468
 30
0.0
  0
SPLINE
  5
FD
330
1F
100
AcDbEntity
  8
\U+30EC\U+30A4\U+30E4\U+30FC 2
 62
   250
420
  2234132
370
    18
100
AcDbSpline
210
0.0
220
0.0
230
1.0
 70
     8
 71
     3
 72
    32
 73
    28
 74
     0
 42
0.0000000001
 43
0.0000000001
 40
0.0
 40
0.0
 40
0.0
 40
0.0
 40
1.0
 40
1.0
 40
1.0
 40
2.0
 40
2.0
 40
2.0
 40
3.0
 40
3.0
 40
3.0
 40
4.0
 40
4.0
 40
4.0
 40
5.0
 40
5.0
 40
5.0
 40
6.0
 40
6.0
 40
6.0
 40
7.0
 40
7.0
 40
7.0
 40
8.0
 40
8.0
 40
8.0
 40
9.0
 40
9.0
 40
9.0
 40
9.0
 10
-89.19392546340391
 20
90.00765755383446
 30
0.0
 10
-89.19392546340391
 20
90.00765755383446
 30
0.0
 10
-88.29854455610966
 20
99.40037208114121
 30
0.0
 10
-87.40333590370332
 20
105.1330147503895
 30
0.0
 10
-86.50812725129698
 20
110.8656574196377
 30
0.0
 10
-84.97350845501295
 20
122.5073317633419
 30
0.0
 10
-83.39617044653019
 20
133.3552555836116
 30
0.0
 10
-81.81883243804742
 20
144.2031794038814
 30
0.0
 10
-77.1720845821087
 20
170.4410439285176
 30
0.0
 10
-75.21113493827691
 20
182.2150100261275
 30
0.0
 10
-73.25001303955722
 20
193.9889761237373
 30
0.0
 10
-69.02959603116625
 20
217.3605193137494
 30
0.0
 10
-66.72758170929625
 20
231.6039314842662
 30
0.0
 10
-64.42556738742626
 20
245.847343654783
 30
0.0
 10
-60.97254590462125
 20
266.6171490179825
 30
0.0
 10
-58.5852654132417
 20
278.4793096181962
 30
0.0
 10
-56.19798492186214
 20
290.3414702184098
 30
0.0
 10
-50.95437387935656
 20
312.3900958693646
 30
0.0
 10
-48.01294941360887
 20
324.2963537208802
 30
0.0
 10
-45.07135269297328
 20
336.2026115723958
 30
0.0
 10
-38.71945370173142
 20
358.5158207311621
 30
0.0
 10
-34.71211598967038
 20
368.1731187662803
 30
0.0
 10
-30.70495053249724
 20
377.8304168013985
 30
0.0
 10
-25.29080715097255
 20
385.9884082922518
 30
0.0
 10
-17.44683632075748
 20
394.2345942857089
 30
0.0
 10
-9.60286549054241
 20
402.480780279166
 30
0.0
 10
-5.552980821170547
 20
405.876268629413
 30
0.0
 10
-1.460549194487858
 20
406.8023109067531
 30
0.0
  0
SPLINE
  5
FE
330
1F
100
AcDbEntity
  8
\U+30EC\U+30A4\U+30E4\U+30FC 2
 62
   250
420
  2234132
370
    18
100
AcDbSpline
210
0.0
220
0.0
230
1.0
 70
     8
 71
     3
 72
    80
 73
    76
 74
     0
 42
0.0000000001
 43
0.0000000001
 40
0.0
 40
0.0
 40
0.0
 40
0.0
 40
1.0
 40
1.0
 40
1.0
 40
2.0
 40
2.0
 40
2.0
 40
3.0
 40
3.0
 40
3.0
 40
4.0
 40
4.0
 40
4.0
 40
5.0
 40
5.0
 40
5.0
 40
6.0
 40
6.0
 40
6.0
 40
7.0
 40
7.0
 40
7.0
 40
8.0
 40
8.0
 40
8.0
 40
9.0
 40
9.0
 40
9.0
 40
10.0
 40
10.0
 40
10.0
 40
11.0
 40
11.0
 40
11.0
 40
12.0
 40
12.0
 40
12.0
 40
13.0
 40
13.0
 40
13.0
 40
14.0
 40
14.0
 40
14.0
 40
15.0
 40
15.0
 40
15.0
 40
16.0
 40
16.0
 40
16.0
 40
17.0
 40
17.0
 40
17.0
 40
18.0
 40
18.0
 40
18.0
 40
19.0
 40
19.0
 40
19.0
 40
20.0
 40
20.0
 40
20.0
 40
21.0
 40
21.0
 40
21.0
 40
22.0
 40
22.0
 40
22.0
 40
23.0
 40
23.0
 40
23.0
 40
24.0
 40
24.0
 40
24.0
 40
25.0
 40
25.0
 40
25.0
 40
25.0
 10
-147.9810736052622
 20
-66.18480655752938
 30
0.0
 10
-159.2355189609714
 20
-66.18480655752938
 30
0.0
 10
-300.8869144555306
 20
-65.8775038375192
 30
0.0
 10
-302.3030218889407
 20
-66.18480655752938
 30
0.0
 10
-305.8271846404476
 20
-66.94892924024529
 30
0.0
 10
-307.3049593237253
 20
-69.06559730273695
 30
0.0
 10
-307.9870886798017
 20
-69.7711533235675
 30
0.0
 10
-308.2859509103049
 20
-70.08052310223246
 30
0.0
 10
-308.6084120604501
 20
-71.34073986209485
 30
0.0
 10
-309.4081915049609
 20
-72.0642103912668
 30
0.0
 10
-310.4336248526182
 20
-72.99163070771009
 30
0.0
 10
-312.07004628765
 20
-73.10118481641327
 30
0.0
 10
-312.9321820015799
 20
-73.29893342772027
 30
0.0
 10
-313.1700660017672
 20
-73.35405499184766
 30
0.0
 10
-313.5069965624958
 20
-73.67307104423492
 30
0.0
 10
-314.0118756389251
 20
-73.67582712244128
 30
0.0
 10
-316.7639919828728
 20
-73.69374163078268
 30
0.0
 10
-322.821162860921
 20
-73.06397776062728
 30
0.0
 10
-324.9824449393783
 20
-73.06397776062728
 30
0.0
 10
-327.540257769777
 20
-73.06397776062728
 30
0.0
 10
-390.4627290054045
 20
-75.53342383353423
 30
0.0
 10
-397.9656351575814
 20
-75.53342383353423
 30
0.0
 10
-405.4687135646461
 20
-75.53342383353423
 30
0.0
 10
-406.4917353438728
 20
-72.711199750212
 30
0.0
 10
-407.8559940560257
 20
-72.711199750212
 30
0.0
 10
-409.2200805132906
 20
-72.711199750212
 30
0.0
 10
-413.1421520558421
 20
-72.53481074500436
 30
0.0
 10
-415.5294325472217
 20
-72.18203273458909
 30
0.0
 10
-417.9167130386012
 20
-71.82925472417382
 30
0.0
 10
-424.5669574956826
 20
-68.47786362522868
 30
0.0
 10
-426.2722808858736
 20
-63.53897147941481
 30
0.0
 10
-427.9774320211768
 20
-58.60007933360093
 30
0.0
 10
-429.5122230723487
 20
-52.07368614091831
 30
0.0
 10
-430.7057771905945
 20
-39.72645577638362
 30
0.0
 10
-431.8995035637282
 20
-27.37922541184893
 30
0.0
 10
-437.697258580602
 20
31.18192431708704
 30
0.0
 10
-442.3012872243419
 20
65.04861331695362
 30
0.0
 10
-446.905315868082
 20
98.9153023168202
 30
0.0
 10
-455.9430130714308
 20
163.6498949731356
 30
0.0
 10
-459.524019935944
 20
187.2860216709592
 30
0.0
 10
-463.1048545455694
 20
210.9221483687827
 30
0.0
 10
-467.7090554441973
 20
225.386219050697
 30
0.0
 10
-468.0501201222355
 20
234.0292803058713
 30
0.0
 10
-468.3910125453858
 20
242.6723415610455
 30
0.0
 10
-467.19745842714
 20
250.4334577901816
 30
0.0
 10
-466.0039043088942
 20
257.4890179984872
 30
0.0
 10
-464.8101779357604
 20
264.5445782067927
 30
0.0
 10
-464.4691132577223
 20
269.6598593578142
 30
0.0
 10
-463.6164515626267
 20
272.1293054307212
 30
0.0
 10
-462.7639621224191
 20
274.5987515036281
 30
0.0
 10
-460.0356169530014
 20
277.7737535973656
 30
0.0
 10
-457.818696545753
 20
278.6556986234038
 30
0.0
 10
-455.6019483933925
 20
279.537643649442
 30
0.0
 10
-452.0209415288792
 20
280.2431996702725
 30
0.0
 10
-447.5874452241584
 20
280.9487556911031
 30
0.0
 10
-443.1539489194375
 20
281.6543117119336
 30
0.0
 10
-440.0845390719815
 20
282.0070897223489
 30
0.0
 10
-440.0845390719815
 20
282.0070897223489
 30
0.0
 10
-440.0845390719815
 20
282.0070897223489
 30
0.0
 10
-439.4024097159051
 20
292.9432080452225
 30
0.0
 10
-433.263762275881
 20
312.1696096128551
 30
0.0
 10
-427.1249425809691
 20
331.3960111804877
 30
0.0
 10
-415.5294325472217
 20
356.090471909557
 30
0.0
 10
-406.4917353438728
 20
370.5543703365834
 30
0.0
 10
-397.4540381405241
 20
385.0182687636098
 30
0.0
 10
-387.0522544799103
 20
392.4266069823306
 30
0.0
 10
-364.5433637684919
 20
400.5405012218819
 30
0.0
 10
-342.0346453119613
 20
408.6543954614333
 30
0.0
 10
-303.4967482620744
 20
407.0668944145646
 30
0.0
 10
-292.0717705673461
 20
406.7141164041493
 30
0.0
 10
-280.6467928726178
 20
406.361338393734
 30
0.0
 10
-240.0626800093896
 20
405.6557823729034
 30
0.0
 10
-219.4296450271812
 20
404.7738373468653
 30
0.0
 10
-198.796437790085
 20
403.8918923208271
 30
0.0
 10
-168.7846409264896
 20
404.9502263520729
 30
0.0
 10
-148.1516059442813
 20
404.9502263520729
 30
0.0
  0
SPLINE
  5
FF
330
1F
100
AcDbEntity
  8
\U+30EC\U+30A4\U+30E4\U+30FC 2
 62
   250
420
  2234132
370
    18
100
AcDbSpline
210
0.0
220
0.0
230
1.0
 70
     8
 71
     3
 72
    44
 73
    40
 74
     0
 42
0.0000000001
 43
0.0000000001
 40
0.0
 40
0.0
 40
0.0
 40
0.0
 40
1.0
 40
1.0
 40
1.0
 40
2.0
 40
2.0
 40
2.0
 40
3.0
 40
3.0
 40
3.0
 40
4.0
 40
4.0
 40
4.0
 40
5.0
 40
5.0
 40
5.0
 40
6.0
 40
6.0
 40
6.0
 40
7.0
 40
7.0
 40
7.0
 40
8.0
 40
8.0
 40
8.0
 40
9.0
 40
9.0
 40
9.0
 40
10.0
 40
10.0
 40
10.0
 40
11.0
 40
11.0
 40
11.0
 40
12.0
 40
12.0
 40
12.0
 40
13.0
 40
13.0
 40
13.0
 40
13.0
 10
-307.9870886798017
 20
-69.7711533235675
 30
0.0
 10
-307.9870886798017
 20
-67.94869660960578
 30
0.0
 10
-309.8062725508934
 20
-62.77415977714731
 30
0.0
 10
-311.2838749792832
 20
-56.83618928152455
 30
0.0
 10
-312.7616496625608
 20
-50.89752976635019
 30
0.0
 10
-314.9785700698092
 20
-39.3144220845314
 30
0.0
 10
-318.1048240302715
 20
-30.67136082935712
 30
0.0
 10
-321.2309057358459
 20
-22.02829957418283
 30
0.0
 10
-325.9486226055986
 20
-10.32805856859335
 30
0.0
 10
-327.3697254307579
 20
1.666393785526069
 30
0.0
 10
-328.7908282559171
 20
13.66084613964548
 30
0.0
 10
-331.689533509466
 20
33.47498138478634
 30
0.0
 10
-333.6790774646889
 20
44.70531105618985
 30
0.0
 10
-335.6684491650238
 20
55.93564072759336
 30
0.0
 10
-340.3293219217703
 20
77.21945467628068
 30
0.0
 10
-342.4893982160122
 20
87.09723896790842
 30
0.0
 10
-344.6493022553663
 20
96.97502325953619
 30
0.0
 10
-347.6618679898159
 20
108.263919592825
 30
0.0
 10
-349.7080838031573
 20
121.6109173267202
 30
0.0
 10
-351.7542996164986
 20
134.9579150606154
 30
0.0
 10
-354.1415801078782
 20
147.1280674003908
 30
0.0
 10
-356.3016564021201
 20
162.2387829314745
 30
0.0
 10
-358.4617326963621
 20
177.3496707174461
 30
0.0
 10
-361.0760451299913
 20
192.519125165303
 30
0.0
 10
-363.9180785254218
 20
204.101888337346
 30
0.0
 10
-366.7602841757402
 20
215.684651509389
 30
0.0
 10
-370.284619182135
 20
227.7969262068307
 30
0.0
 10
-373.9791420177731
 20
239.2622115453272
 30
0.0
 10
-377.6736648534113
 20
250.7274968838236
 30
0.0
 10
-380.7429024459793
 20
258.1945740193177
 30
0.0
 10
-386.08607681369
 20
265.9556902484538
 30
0.0
 10
-391.4292511814007
 20
273.7168064775899
 30
0.0
 10
-400.3530879038489
 20
278.5380485349694
 30
0.0
 10
-406.378219372748
 20
280.4195886754802
 30
0.0
 10
-412.4033508416472
 20
282.3011288159909
 30
0.0
 10
-420.5315422368942
 20
282.7713846599527
 30
0.0
 10
-426.2156090277551
 20
282.7713846599527
 30
0.0
 10
-431.899848073504
 20
282.7713846599527
 30
0.0
 10
-440.0845390719815
 20
282.0070897223489
 30
0.0
 10
-440.0845390719815
 20
282.0070897223489
 30
0.0
  0
SPLINE
  5
100
330
1F
100
AcDbEntity
  8
\U+30EC\U+30A4\U+30E4\U+30FC 2
 62
   250
420
  2234132
370
    18
100
AcDbSpline
210
0.0
220
0.0
230
1.0
 70
     8
 71
     3
 72
    77
 73
    73
 74
     0
 42
0.0000000001
 43
0.0000000001
 40
0.0
 40
0.0
 40
0.0
 40
0.0
 40
1.0
 40
1.0
 40
1.0
 40
2.0
 40
2.0
 40
2.0
 40
3.0
 40
3.0
 40
3.0
 40
4.0
 40
4.0
 40
4.0
 40
5.0
 40
5.0
 40
5.0
 40
6.0
 40
6.0
 40
6.0
 40
7.0
 40
7.0
 40
7.0
 40
8.0
 40
8.0
 40
8.0
 40
9.0
 40
9.0
 40
9.0
 40
10.0
 40
10.0
 40
10.0
 40
11.0
 40
11.0
 40
11.0
 40
12.0
 40
12.0
 40
12.0
 40
13.0
 40
13.0
 40
13.0
 40
14.0
 40
14.0
 40
14.0
 40
15.0
 40
15.0
 40
15.0
 40
16.0
 40
16.0
 40
16.0
 40
17.0
 40
17.0
 40
17.0
 40
18.0
 40
18.0
 40
18.0
 40
19.0
 40
19.0
 40
19.0
 40
20.0
 40
20.0
 40
20.0
 40
21.0
 40
21.0
 40
21.0
 40
22.0
 40
22.0
 40
22.0
 40
23.0
 40
23.0
 40
23.0
 40
24.0
 40
24.0
 40
24.0
 40
24.0
 10
-312.9321820015799
 20
-73.29893342772027
 30
0.0
 10
-313.2735911893939
 20
-72.65194406877507
 30
0.0
 10
-313.7851882064512
 20
-71.71143238085152
 30
0.0
 10
-314.4671453076397
 20
-67.94869660960578
 30
0.0
 10
-315.1492746637161
 20
-64.18527181880842
 30
0.0
 10
-316.513533375869
 20
-57.18896729193983
 30
0.0
 10
-318.3892168501912
 20
-48.72229504197318
 30
0.0
 10
-320.2649003245135
 20
-40.25562279200653
 30
0.0
 10
-320.4354326635326
 20
-38.37391039660786
 30
0.0
 10
-324.5847084032216
 20
-27.085014063319
 30
0.0
 10
-328.7339841429107
 20
-15.79611773003014
 30
0.0
 10
-330.950904550159
 20
-5.095644093801133
 30
0.0
 10
-332.4855233464431
 20
5.723340905301753
 30
0.0
 10
-334.020314397615
 20
16.54163688485305
 30
0.0
 10
-335.8961701268252
 20
30.35854595293419
 30
0.0
 10
-338.3969665893295
 20
42.05947597807528
 30
0.0
 10
-340.8979353067218
 20
53.75971698366476
 30
0.0
 10
-343.9103287862835
 20
70.57592815982736
 30
0.0
 10
-347.5481797638031
 20
87.50927265976064
 30
0.0
 10
-351.1862029962107
 20
104.4426171596939
 30
0.0
 10
-354.6533493798233
 20
122.5521180341953
 30
0.0
 10
-356.8700975321838
 20
135.7220377433313
 30
0.0
 10
-359.0866734296563
 20
148.8924742171309
 30
0.0
 10
-361.7585189958435
 20
166.4135523945725
 30
0.0
 10
-364.0891276291046
 20
180.1718948007683
 30
0.0
 10
-366.419219497702
 20
193.9302372069641
 30
0.0
 10
-367.8403223228612
 20
202.1030426181766
 30
0.0
 10
-372.9559479836585
 20
218.8599981129022
 30
0.0
 10
-378.0715736444558
 20
235.6169536076279
 30
0.0
 10
-382.4485703459462
 20
250.3159799566351
 30
0.0
 10
-388.4737018148454
 20
260.4878033419049
 30
0.0
 10
-394.4986610288566
 20
270.6596267271747
 30
0.0
 10
-404.9001001796946
 20
275.0104406857045
 30
0.0
 10
-408.2539028470703
 20
275.8923857117427
 30
0.0
 10
-411.607705514446
 20
276.7743307377809
 30
0.0
 10
-418.1442617455146
 20
277.8326647690267
 30
0.0
 10
-426.045076688736
 20
277.6562757638191
 30
0.0
 10
-433.9460638868454
 20
277.4798867586115
 30
0.0
 10
-443.7223900495011
 20
276.8918085713274
 30
0.0
 10
-448.0423703830972
 20
275.951124628516
 30
0.0
 10
-452.3623507166932
 20
275.0104406857045
 30
0.0
 10
-457.5913200937275
 20
272.0707387688358
 30
0.0
 10
-458.2167775916855
 20
269.2485146855136
 30
0.0
 10
-458.8422350896434
 20
266.4262906021914
 30
0.0
 10
-459.2971602485823
 20
262.8983382431507
 30
0.0
 10
-458.5011704116052
 20
256.6659841441101
 30
0.0
 10
-457.7051805746282
 20
250.4336300450695
 30
0.0
 10
-455.4884324222677
 20
238.0863996805348
 30
0.0
 10
-453.8401253999709
 20
226.6211143420383
 30
0.0
 10
-452.1918183776742
 20
215.1558290035418
 30
0.0
 10
-450.7142159492844
 20
205.1605668783676
 30
0.0
 10
-449.4636454631443
 20
193.8716705450787
 30
0.0
 10
-448.2129027221163
 20
182.5827742117899
 30
0.0
 10
-445.9961545697558
 20
167.7660977743483
 30
0.0
 10
-445.1434928746604
 20
159.063780837737
 30
0.0
 10
-444.2910034344527
 20
150.3621529206774
 30
0.0
 10
-443.3244812584566
 20
138.5442618266535
 30
0.0
 10
-441.3351095581216
 20
123.6097630458896
 30
0.0
 10
-439.3457378577866
 20
108.6759532846773
 30
0.0
 10
-436.9582851115192
 20
91.44839743621404
 30
0.0
 10
-434.8553974400593
 20
72.51620721711137
 30
0.0
 10
-432.7525097685995
 20
53.58332797845712
 30
0.0
 10
-430.3650570223321
 20
36.70855014040918
 30
0.0
 10
-428.2618248410965
 20
19.30529430628991
 30
0.0
 10
-426.1587649147488
 20
1.901349452619056
 30
0.0
 10
-424.1693932144138
 20
-13.20884931380091
 30
0.0
 10
-422.1231774010724
 20
-23.85144530769616
 30
0.0
 10
-420.0769615877311
 20
-34.49335228203982
 30
0.0
 10
-416.7800030333618
 20
-47.25261633842673
 30
0.0
 10
-414.4497389098765
 20
-56.130633260694
 30
0.0
 10
-412.1193025315033
 20
-65.00865018296126
 30
0.0
 10
-407.8559940560257
 20
-72.711199750212
 30
0.0
 10
-407.8559940560257
 20
-72.711199750212
 30
0.0
  0
SPLINE
  5
101
330
1F
100
AcDbEntity
  8
\U+30EC\U+30A4\U+30E4\U+30FC 2
 62
   250
420
  2234132
370
    18
100
AcDbSpline
210
0.0
220
0.0
230
1.0
 70
     8
 71
     3
 72
    17
 73
    13
 74
     0
 42
0.0000000001
 43
0.0000000001
 40
0.0
 40
0.0
 40
0.0
 40
0.0
 40
1.0
 40
1.0
 40
1.0
 40
2.0
 40
2.0
 40
2.0
 40
3.0
 40
3.0
 40
3.0
 40
4.0
 40
4.0
 40
4.0
 40
4.0
 10
-148.1088867320825
 20
-25.52714085716872
 30
0.0
 10
-151.0930304100289
 20
-25.52714085716872
 30
0.0
 10
-178.8453599090651
 20
-25.96811337018782
 30
0.0
 10
-191.5493301464367
 20
-25.83582161628209
 30
0.0
 10
-204.2531281289205
 20
-25.70352986237636
 30
0.0
 10
-229.1065801195198
 20
-26.14450237539546
 30
0.0
 10
-240.4890108569373
 20
-26.27679412930119
 30
0.0
 10
-251.8712693394669
 20
-26.40908588320692
 30
0.0
 10
-275.4459010423109
 20
-26.62957213971646
 30
0.0
 10
-287.7660873894455
 20
-26.8059611449241
 30
0.0
 10
-300.0862737365803
 20
-26.98235015013174
 30
0.0
 10
-319.2699560920141
 20
-27.29103090924511
 30
0.0
 10
-319.2699560920141
 20
-27.29103090924511
 30
0.0
  0
SPLINE
  5
102
330
1F
100
AcDbEntity
  8
\U+30EC\U+30A4\U+30E4\U+30FC 2
 62
   250
420
  2234132
370
    18
100
AcDbSpline
210
0.0
220
0.0
230
1.0
 70
     8
 71
     3
 72
    23
 73
    19
 74
     0
 42
0.0000000001
 43
0.0000000001
 40
0.0
 40
0.0
 40
0.0
 40
0.0
 40
1.0
 40
1.0
 40
1.0
 40
2.0
 40
2.0
 40
2.0
 40
3.0
 40
3.0
 40
3.0
 40
4.0
 40
4.0
 40
4.0
 40
5.0
 40
5.0
 40
5.0
 40
6.0
 40
6.0
 40
6.0
 40
6.0
 10
-148.1516059442813
 20
90.93369983117456
 30
0.0
 10
-160.6421523755472
 20
90.93369983117456
 30
0.0
 10
-170.4897920617927
 20
90.44863006685355
 30
0.0
 10
-184.5153017991185
 20
90.27224106164591
 30
0.0
 10
-198.5406392815563
 20
90.09585205643828
 30
0.0
 10
-215.1239618492807
 20
89.96356030253256
 30
0.0
 10
-227.8703067890752
 20
89.47849053821155
 30
0.0
 10
-240.6168239837577
 20
88.99342077389053
 30
0.0
 10
-257.2001465514821
 20
88.3319620043619
 30
0.0
 10
-268.3693257376818
 20
87.84689224004089
 30
0.0
 10
-279.5383326689936
 20
87.36182247571989
 30
0.0
 10
-287.7235404321348
 20
87.53821148092753
 30
0.0
 10
-296.6757992110861
 20
86.39168294707787
 30
0.0
 10
-305.6282302449253
 20
85.24515441322822
 30
0.0
 10
-317.1384741091632
 20
83.04029184813274
 30
0.0
 10
-324.0445170747732
 20
78.63056671794178
 30
0.0
 10
-330.9507322952711
 20
74.22084158775083
 30
0.0
 10
-337.6009767523525
 20
68.40000441589875
 30
0.0
 10
-336.2368902950876
 20
57.55208059562899
 30
0.0
  0
SPLINE
  5
103
330
1F
100
AcDbEntity
  8
\U+30EC\U+30A4\U+30E4\U+30FC 2
 62
   250
420
  2234132
370
    18
100
AcDbSpline
210
0.0
220
0.0
230
1.0
 70
     8
 71
     3
 72
    32
 73
    28
 74
     0
 42
0.0000000001
 43
0.0000000001
 40
0.0
 40
0.0
 40
0.0
 40
0.0
 40
1.0
 40
1.0
 40
1.0
 40
2.0
 40
2.0
 40
2.0
 40
3.0
 40
3.0
 40
3.0
 40
4.0
 40
4.0
 40
4.0
 40
5.0
 40
5.0
 40
5.0
 40
6.0
 40
6.0
 40
6.0
 40
7.0
 40
7.0
 40
7.0
 40
8.0
 40
8.0
 40
8.0
 40
9.0
 40
9.0
 40
9.0
 40
9.0
 10
-288.0218858979742
 20
87.18543347051225
 30
0.0
 10
-288.0218858979742
 20
87.18543347051225
 30
0.0
 10
-289.6417708637678
 20
97.9451627881782
 30
0.0
 10
-290.6649648978824
 20
105.2212092529933
 30
0.0
 10
-291.6881589319971
 20
112.4972557178084
 30
0.0
 10
-294.5017702709243
 20
126.3878898779099
 30
0.0
 10
-296.3347345330479
 20
136.7066466825567
 30
0.0
 10
-298.1678710500593
 20
147.0254034872036
 30
0.0
 10
-301.5356263633548
 20
164.44364549657
 30
0.0
 10
-305.0313670583585
 20
179.4808081905212
 30
0.0
 10
-308.5271077533622
 20
194.5179708844723
 30
0.0
 10
-315.7316684396996
 20
221.990558445562
 30
0.0
 10
-319.2699560920141
 20
233.5442105415503
 30
0.0
 10
-322.8082437443287
 20
245.0976903826506
 30
0.0
 10
-329.3733942867884
 20
264.0595084424717
 30
0.0
 10
-333.2101996598303
 20
275.612988283572
 30
0.0
 10
-337.0468327779843
 20
287.1664681246723
 30
0.0
 10
-344.8055374386898
 20
309.5237745347405
 30
0.0
 10
-351.0721702604222
 20
320.4157956063122
 30
0.0
 10
-357.3389753370424
 20
331.3078166778839
 30
0.0
 10
-363.3923566075568
 20
341.5824762312288
 30
0.0
 10
-375.1158520230126
 20
349.6522732194783
 30
0.0
 10
-386.8391751835804
 20
357.7220702077277
 30
0.0
 10
-393.6174050223701
 20
360.7647805475595
 30
0.0
 10
-399.2446277002247
 20
361.7790173275034
 30
0.0
 10
-404.8718503780793
 20
362.7932541074473
 30
0.0
 10
-410.9679508607925
 20
362.0876980866168
 30
0.0
 10
-413.5257636911912
 20
358.1630427207468
 30
0.0
  0
SPLINE
  5
104
330
1F
100
AcDbEntity
  8
\U+30EC\U+30A4\U+30E4\U+30FC 2
 62
   250
420
  2234132
370
    18
100
AcDbSpline
210
0.0
220
0.0
230
1.0
 70
     8
 71
     3
 72
    32
 73
    28
 74
     0
 42
0.0000000001
 43
0.0000000001
 40
0.0
 40
0.0
 40
0.0
 40
0.0
 40
1.0
 40
1.0
 40
1.0
 40
2.0
 40
2.0
 40
2.0
 40
3.0
 40
3.0
 40
3.0
 40
4.0
 40
4.0
 40
4.0
 40
5.0
 40
5.0
 40
5.0
 40
6.0
 40
6.0
 40
6.0
 40
7.0
 40
7.0
 40
7.0
 40
8.0
 40
8.0
 40
8.0
 40
9.0
 40
9.0
 40
9.0
 40
9.0
 10
-207.024192510537
 20
90.00765755383446
 30
0.0
 10
-207.024192510537
 20
90.00765755383446
 30
0.0
 10
-207.9194011629433
 20
99.40037208114121
 30
0.0
 10
-208.8146098153497
 20
105.1330147503895
 30
0.0
 10
-209.709818467756
 20
110.8656574196377
 30
0.0
 10
-211.24443726404
 20
122.5073317633419
 30
0.0
 10
-212.8217752725228
 20
133.3552555836116
 30
0.0
 10
-214.3991132810056
 20
144.2031794038814
 30
0.0
 10
-219.0458611369443
 20
170.4408716736297
 30
0.0
 10
-221.0068107807761
 20
182.2148377712396
 30
0.0
 10
-222.9679326794958
 20
193.9888038688494
 30
0.0
 10
-227.1883496878867
 20
217.3603470588615
 30
0.0
 10
-229.4903640097567
 20
231.6039314842662
 30
0.0
 10
-231.7923783316267
 20
245.847343654783
 30
0.0
 10
-235.2453998144317
 20
266.6171490179825
 30
0.0
 10
-237.6326803058113
 20
278.4793096181962
 30
0.0
 10
-240.0199607971908
 20
290.3414702184098
 30
0.0
 10
-245.2635718396964
 20
312.3900958693646
 30
0.0
 10
-248.205168560332
 20
324.2963537208802
 30
0.0
 10
-251.1465930260797
 20
336.2026115723958
 30
0.0
 10
-257.4984920173216
 20
358.5158207311621
 30
0.0
 10
-261.5058297293826
 20
368.1731187662803
 30
0.0
 10
-265.5129951865557
 20
377.8304168013985
 30
0.0
 10
-270.9271385680804
 20
385.9884082922518
 30
0.0
 10
-278.7711093982955
 20
394.2345942857089
 30
0.0
 10
-286.6150802285106
 20
402.480780279166
 30
0.0
 10
-290.6649648978824
 20
405.876268629413
 30
0.0
 10
-294.7573965245651
 20
406.8023109067531
 30
0.0
  0
SPLINE
  5
105
330
1F
100
AcDbEntity
  8
\U+30EC\U+30A4\U+30E4\U+30FC 2
 62
   250
420
  2234132
370
    35
100
AcDbSpline
210
0.0
220
0.0
230
1.0
 70
     8
 71
     3
 72
    89
 73
    85
 74
     0
 42
0.0000000001
 43
0.0000000001
 40
0.0
 40
0.0
 40
0.0
 40
0.0
 40
1.0
 40
1.0
 40
1.0
 40
2.0
 40
2.0
 40
2.0
 40
3.0
 40
3.0
 40
3.0
 40
4.0
 40
4.0
 40
4.0
 40
5.0
 40
5.0
 40
5.0
 40
6.0
 40
6.0
 40
6.0
 40
7.0
 40
7.0
 40
7.0
 40
8.0
 40
8.0
 40
8.0
 40
9.0
 40
9.0
 40
9.0
 40
10.0
 40
10.0
 40
10.0
 40
11.0
 40
11.0
 40
11.0
 40
12.0
 40
12.0
 40
12.0
 40
13.0
 40
13.0
 40
13.0
 40
14.0
 40
14.0
 40
14.0
 40
15.0
 40
15.0
 40
15.0
 40
16.0
 40
16.0
 40
16.0
 40
17.0
 40
17.0
 40
17.0
 40
18.0
 40
18.0
 40
18.0
 40
19.0
 40
19.0
 40
19.0
 40
20.0
 40
20.0
 40
20.0
 40
21.0
 40
21.0
 40
21.0
 40
22.0
 40
22.0
 40
22.0
 40
23.0
 40
23.0
 40
23.0
 40
24.0
 40
24.0
 40
24.0
 40
25.0
 40
25.0
 40
25.0
 40
26.0
 40
26.0
 40
26.0
 40
27.0
 40
27.0
 40
27.0
 40
28.0
 40
28.0
 40
28.0
 40
28.0
 10
-148.1671088841921
 20
903.0400486297433
 30
0.0
 10
-133.2422563771505
 20
903.0400486297433
 30
0.0
 10
-107.1525310561066
 20
902.4888329884694
 30
0.0
 10
-86.23355295998743
 20
902.5994206265
 30
0.0
 10
-65.31423035409247
 20
902.7098360096427
 30
0.0
 10
-28.64736589655462
 20
901.7179923651255
 30
0.0
 10
-14.19208021392317
 20
901.8280632384923
 30
0.0
 10
0.2628609589324769
 20
901.9381341118592
 30
0.0
 10
28.70283197045781
 20
901.2768475972184
 30
0.0
 10
35.75425806145379
 20
901.497333853728
 30
0.0
 10
42.80568415244978
 20
901.7179923651255
 30
0.0
 10
45.97861918753249
 20
901.2771921069942
 30
0.0
 10
49.38719890925979
 20
903.0403931395191
 30
0.0
 10
52.79508961143549
 20
904.8035941720439
 30
0.0
 10
53.50030112249024
 20
909.4320830098653
 30
0.0
 10
53.50030112249024
 20
909.4320830098653
 30
0.0
 10
53.50030112249024
 20
909.4320830098653
 30
0.0
 10
65.72212992863513
 20
906.6766938230476
 30
0.0
 10
69.36532080767962
 20
904.9136650454108
 30
0.0
 10
73.00885619649989
 20
903.1504640128859
 30
0.0
 10
78.53203692206408
 20
900.0645176961917
 30
0.0
 10
84.8785960117811
 20
896.3178016295205
 30
0.0
 10
91.22446608194653
 20
892.5709133079614
 30
0.0
 10
95.92530197268525
 20
891.0276817672824
 30
0.0
 10
106.0321852652175
 20
889.8156963760315
 30
0.0
 10
116.1394130675255
 20
888.6037109847806
 30
0.0
 10
127.5388970388449
 20
889.1544098613908
 30
0.0
 10
131.2999102612117
 20
889.0443389880239
 30
0.0
 10
135.0605789738026
 20
888.934268114657
 30
0.0
 10
148.6948978607118
 20
886.7998577987119
 30
0.0
 10
154.5691340478123
 20
886.9507530805106
 30
0.0
 10
163.1481164846885
 20
887.1708948272443
 30
0.0
 10
159.6224034391905
 20
891.3585834069347
 30
0.0
 10
159.6224034391905
 20
891.3585834069347
 30
0.0
 10
159.6224034391905
 20
891.3585834069347
 30
0.0
 10
160.5632596368899
 20
891.1384416602009
 30
0.0
 10
160.797870794207
 20
895.2158871116364
 30
0.0
 10
161.0324819515242
 20
899.2931603081842
 30
0.0
 10
163.1484609944643
 20
928.6069803660164
 30
0.0
 10
163.9711503390655
 20
950.3171251622515
 30
0.0
 10
164.793495173891
 20
972.0272699584866
 30
0.0
 10
168.084252552296
 20
1022.169806551179
 30
0.0
 10
169.2593753975367
 20
1045.312250740287
 30
0.0
 10
170.4344982427775
 20
1068.455039439171
 30
0.0
 10
171.844921264887
 20
1096.997157599219
 30
0.0
 10
171.844921264887
 20
1115.621528333648
 30
0.0
 10
171.844921264887
 20
1134.246071322965
 30
0.0
 10
172.07987693198
 20
1165.103122921476
 30
0.0
 10
171.4921432544717
 20
1186.372295204692
 30
0.0
 10
170.9044095769634
 20
1207.64129523302
 30
0.0
 10
170.1991980659087
 20
1225.824865709318
 30
0.0
 10
167.6139967083342
 20
1245.440735578488
 30
0.0
 10
165.0287953507598
 20
1265.056777702546
 30
0.0
 10
161.737693462579
 20
1280.485648011577
 30
0.0
 10
160.2101371166988
 20
1288.309981784572
 30
0.0
 10
158.6825807708186
 20
1296.134143302679
 30
0.0
 10
156.5666017278785
 20
1309.248424683024
 30
0.0
 10
155.6267790595065
 20
1316.081087066389
 30
0.0
 10
154.6869563911346
 20
1322.913577194867
 30
0.0
 10
153.158366515927
 20
1329.19485168207
 30
0.0
 10
151.8657658371398
 20
1342.860176448801
 30
0.0
 10
150.5735096681283
 20
1356.525501215532
 30
0.0
 10
149.162742136243
 20
1372.064270143042
 30
0.0
 10
146.8124964457616
 20
1385.068136140245
 30
0.0
 10
144.4622507552801
 20
1398.072002137447
 30
0.0
 10
139.4086368541261
 20
1414.0513990682
 30
0.0
 10
133.7676337852396
 20
1427.496237578422
 30
0.0
 10
128.1266307163532
 20
1440.941076088643
 30
0.0
 10
120.2528597905317
 20
1457.471516405783
 30
0.0
 10
114.6118567216453
 20
1468.932495372082
 30
0.0
 10
108.9708536527588
 20
1480.393646593269
 30
0.0
 10
96.51303565019352
 20
1499.128088201064
 30
0.0
 10
84.17338450072634
 20
1511.581083066769
 30
0.0
 10
71.83338884148337
 20
1524.034077932473
 30
0.0
 10
53.50030112249024
 20
1536.597315926432
 30
0.0
 10
36.34199173896206
 20
1547.948051764476
 30
0.0
 10
19.18368235543387
 20
1559.29878760252
 30
0.0
 10
-1.029739719854749
 20
1564.698978338125
 30
0.0
 10
-19.71594995903895
 20
1570.980425080216
 30
0.0
 10
-38.40181568844735
 20
1577.262044077196
 30
0.0
 10
-63.43355148802118
 20
1585.086550105079
 30
0.0
 10
-78.00665951397492
 20
1587.400794523989
 30
0.0
 10
-92.57976753992865
 20
1589.7150389429
 30
0.0
 10
-127.4841199844933
 20
1596.106728813246
 30
0.0
 10
-148.1677979037437
 20
1596.106728813246
 30
0.0
  0
SPLINE
  5
106
330
1F
100
AcDbEntity
  8
\U+30EC\U+30A4\U+30E4\U+30FC 2
 62
   250
420
  2234132
370
    35
100
AcDbSpline
210
0.0
220
0.0
230
1.0
 70
     8
 71
     3
 72
    41
 73
    37
 74
     0
 42
0.0000000001
 43
0.0000000001
 40
0.0
 40
0.0
 40
0.0
 40
0.0
 40
1.0
 40
1.0
 40
1.0
 40
2.0
 40
2.0
 40
2.0
 40
3.0
 40
3.0
 40
3.0
 40
4.0
 40
4.0
 40
4.0
 40
5.0
 40
5.0
 40
5.0
 40
6.0
 40
6.0
 40
6.0
 40
7.0
 40
7.0
 40
7.0
 40
8.0
 40
8.0
 40
8.0
 40
9.0
 40
9.0
 40
9.0
 40
10.0
 40
10.0
 40
10.0
 40
11.0
 40
11.0
 40
11.0
 40
12.0
 40
12.0
 40
12.0
 40
12.0
 10
53.50030112249024
 20
909.4320830098653
 30
0.0
 10
53.50030112249024
 20
909.4320830098653
 30
0.0
 10
55.85020230319591
 20
913.6199438444436
 30
0.0
 10
55.73306897942521
 20
921.9951487489363
 30
0.0
 10
55.61524663610292
 20
930.3705259083171
 30
0.0
 10
54.67542396773098
 20
940.0686483518671
 30
0.0
 10
56.32080265693348
 20
964.3131793137467
 30
0.0
 10
57.96549232658439
 20
988.5577102756263
 30
0.0
 10
58.90634852428373
 20
1030.104211197541
 30
0.0
 10
59.4937376920162
 20
1058.206045864122
 30
0.0
 10
60.08112685974866
 20
1086.307880530704
 30
0.0
 10
59.72869335910918
 20
1112.866828166382
 30
0.0
 10
59.72869335910918
 20
1134.466557579475
 30
0.0
 10
59.72869335910918
 20
1156.066286992567
 30
0.0
 10
58.20079250345317
 20
1168.160991691443
 30
0.0
 10
56.70251948851563
 20
1181.219979252773
 30
0.0
 10
55.2039019638023
 20
1194.279311323878
 30
0.0
 10
51.76638342090813
 20
1219.40544280202
 30
0.0
 10
48.9458818864649
 20
1228.579738131472
 30
0.0
 10
46.12538035202166
 20
1237.754205715812
 30
0.0
 10
43.04063981954276
 20
1242.30018446233
 30
0.0
 10
43.04063981954276
 20
1243.622412981836
 30
0.0
 10
43.04063981954276
 20
1244.944986011117
 30
0.0
 10
43.6573123182179
 20
1250.482636147265
 30
0.0
 10
48.68164288842923
 20
1255.111124985086
 30
0.0
 10
53.70562894886476
 20
1259.739613822908
 30
0.0
 10
68.86578163277517
 20
1270.567211566406
 30
0.0
 10
81.73459979786526
 20
1276.352736486239
 30
0.0
 10
94.60341796295535
 20
1282.13843366096
 30
0.0
 10
103.8583285799436
 20
1285.361839378196
 30
0.0
 10
116.9028467306898
 20
1289.825135778524
 30
0.0
 10
129.9480539009875
 20
1294.288432178851
 30
0.0
 10
137.6161524906586
 20
1297.842395025964
 30
0.0
 10
144.3151450810151
 20
1300.982946142122
 30
0.0
 10
151.0137931615958
 20
1304.124014022944
 30
0.0
 10
155.3329122207524
 20
1306.934180264113
 30
0.0
 10
156.3905572324466
 20
1310.488143111226
 30
0.0
  0
SPLINE
  5
107
330
1F
100
AcDbEntity
  8
\U+30EC\U+30A4\U+30E4\U+30FC 2
 62
   250
420
  2234132
370
    35
100
AcDbSpline
210
0.0
220
0.0
230
1.0
 70
     8
 71
     3
 72
    44
 73
    40
 74
     0
 42
0.0000000001
 43
0.0000000001
 40
0.0
 40
0.0
 40
0.0
 40
0.0
 40
1.0
 40
1.0
 40
1.0
 40
2.0
 40
2.0
 40
2.0
 40
3.0
 40
3.0
 40
3.0
 40
4.0
 40
4.0
 40
4.0
 40
5.0
 40
5.0
 40
5.0
 40
6.0
 40
6.0
 40
6.0
 40
7.0
 40
7.0
 40
7.0
 40
8.0
 40
8.0
 40
8.0
 40
9.0
 40
9.0
 40
9.0
 40
10.0
 40
10.0
 40
10.0
 40
11.0
 40
11.0
 40
11.0
 40
12.0
 40
12.0
 40
12.0
 40
13.0
 40
13.0
 40
13.0
 40
13.0
 10
43.04063981954276
 20
1244.118507058982
 30
0.0
 10
43.04063981954276
 20
1244.118507058982
 30
0.0
 10
39.42673227144095
 20
1245.854147309443
 30
0.0
 10
36.42984173179008
 20
1248.912360589186
 30
0.0
 10
33.43295119213921
 20
1251.970229359153
 30
0.0
 10
26.99888661936996
 20
1260.566092775043
 30
0.0
 10
20.29989402901345
 20
1268.50084193118
 30
0.0
 10
13.60124594843275
 20
1276.435246577542
 30
0.0
 10
7.519614876302978
 20
1283.791563820118
 30
0.0
 10
2.848062316506928
 20
1289.990328216018
 30
0.0
 10
-1.823490243289122
 20
1296.189437121694
 30
0.0
 10
-3.586346766038118
 20
1299.33016049274
 30
0.0
 10
-4.291558277092875
 20
1301.313675526887
 30
0.0
 10
-4.996425278371837
 20
1303.297362815921
 30
0.0
 10
-3.850585764073779
 20
1306.768815571731
 30
0.0
 10
-1.558906735477664
 20
1312.554512746452
 30
0.0
 10
0.7327722931184512
 20
1318.340037666285
 30
0.0
 10
5.668563850950163
 20
1327.514505250625
 30
0.0
 10
11.83838942568375
 20
1339.829523951122
 30
0.0
 10
18.00821500041734
 20
1352.144887161396
 30
0.0
 10
25.05964109141332
 20
1363.633426909759
 30
0.0
 10
32.19891717523733
 20
1376.610076634673
 30
0.0
 10
39.33853776883713
 20
1389.586381849811
 30
0.0
 10
44.62710733708412
 20
1396.198557976667
 30
0.0
 10
53.8820179540724
 20
1405.124978522434
 30
0.0
 10
63.13658406128489
 20
1414.0513990682
 30
0.0
 10
69.30675414579427
 20
1416.117768703426
 30
0.0
 10
78.03249774715964
 20
1419.919778589112
 30
0.0
 10
86.75858585830079
 20
1423.721788474799
 30
0.0
 10
91.87076642134014
 20
1426.03603289371
 30
0.0
 10
93.89820645190059
 20
1426.945021937148
 30
0.0
 10
95.92530197268525
 20
1427.854355490362
 30
0.0
 10
100.5968545324813
 20
1428.598324351194
 30
0.0
 10
104.386806576015
 20
1430.664521731531
 30
0.0
 10
108.1771031293244
 20
1432.730719111869
 30
0.0
 10
110.0278096449014
 20
1433.392177881397
 30
0.0
 10
115.3167237229242
 20
1440.830832960388
 30
0.0
 10
120.6049487813954
 20
1448.269488039379
 30
0.0
 10
120.8695322892069
 20
1450.335857674605
 30
0.0
 10
121.5743992904858
 20
1454.137867560291
 30
0.0
  0
SPLINE
  5
108
330
1F
100
AcDbEntity
  8
\U+30EC\U+30A4\U+30E4\U+30FC 2
 62
   250
420
  2234132
370
    35
100
AcDbSpline
210
0.0
220
0.0
230
1.0
 70
     8
 71
     3
 72
    41
 73
    37
 74
     0
 42
0.0000000001
 43
0.0000000001
 40
0.0
 40
0.0
 40
0.0
 40
0.0
 40
1.0
 40
1.0
 40
1.0
 40
2.0
 40
2.0
 40
2.0
 40
3.0
 40
3.0
 40
3.0
 40
4.0
 40
4.0
 40
4.0
 40
5.0
 40
5.0
 40
5.0
 40
6.0
 40
6.0
 40
6.0
 40
7.0
 40
7.0
 40
7.0
 40
8.0
 40
8.0
 40
8.0
 40
9.0
 40
9.0
 40
9.0
 40
10.0
 40
10.0
 40
10.0
 40
11.0
 40
11.0
 40
11.0
 40
12.0
 40
12.0
 40
12.0
 40
12.0
 10
-4.555797275128537
 20
1303.297362815921
 30
0.0
 10
-4.555797275128537
 20
1303.297362815921
 30
0.0
 10
-4.908575285543813
 20
1301.065800743201
 30
0.0
 10
-7.02386530893229
 20
1299.826082314999
 30
0.0
 10
-9.139155332320767
 20
1298.586191631908
 30
0.0
 10
-16.71940392916387
 20
1300.239149536178
 30
0.0
 10
-19.71629446881474
 20
1301.892279695336
 30
0.0
 10
-22.71318500846562
 20
1303.545409854494
 30
0.0
 10
-32.84935163194049
 20
1307.347419740181
 30
0.0
 10
-46.24664779310191
 20
1311.232111972058
 30
0.0
 10
-59.64428846403912
 20
1315.116804203936
 30
0.0
 10
-68.10579306736882
 20
1316.769762108206
 30
0.0
 10
-74.2759631518782
 20
1318.75344939724
 30
0.0
 10
-80.4457887266118
 20
1320.737136686274
 30
0.0
 10
-83.97150177210979
 20
1322.390094590545
 30
0.0
 10
-85.55796928965114
 20
1325.200260831714
 30
0.0
 10
-87.1444368071925
 20
1328.010427072883
 30
0.0
 10
-87.93784282085107
 20
1332.886962949278
 30
0.0
 10
-88.64270982213004
 20
1343.797243038967
 30
0.0
 10
-89.3479213331848
 20
1354.70717861888
 30
0.0
 10
-87.84964831824726
 20
1365.204046977613
 30
0.0
 10
-88.55485982930202
 20
1378.924148798696
 30
0.0
 10
-89.26007134035677
 20
1392.644595129554
 30
0.0
 10
-88.64270982213004
 20
1404.877103738748
 30
0.0
 10
-87.76145381564343
 20
1416.944247655561
 30
0.0
 10
-86.88019780915684
 20
1429.011391572373
 30
0.0
 10
-85.64616379225497
 20
1447.194962048671
 30
0.0
 10
-82.03225624415315
 20
1462.733730976181
 30
0.0
 10
-78.41834869605134
 20
1478.272155393916
 30
0.0
 10
-74.2759631518782
 20
1483.06600892412
 30
0.0
 10
-66.60752005243128
 20
1497.199522476157
 30
0.0
 10
-58.93907695298437
 20
1511.333036028195
 30
0.0
 10
-50.38937784705084
 20
1524.888117666671
 30
0.0
 10
-41.92787324372114
 20
1538.360516958956
 30
0.0
 10
-33.46636864039144
 20
1551.832743996353
 30
0.0
 10
-23.32985750714076
 20
1567.123293630403
 30
0.0
 10
-15.04474190901869
 20
1569.35502795801
 30
0.0
  0
SPLINE
  5
109
330
1F
100
AcDbEntity
  8
\U+30EC\U+30A4\U+30E4\U+30FC 2
 62
   250
420
  2234132
370
    35
100
AcDbSpline
210
0.0
220
0.0
230
1.0
 70
     8
 71
     3
 72
    14
 73
    10
 74
     0
 42
0.0000000001
 43
0.0000000001
 40
0.0
 40
0.0
 40
0.0
 40
0.0
 40
1.0
 40
1.0
 40
1.0
 40
2.0
 40
2.0
 40
2.0
 40
3.0
 40
3.0
 40
3.0
 40
3.0
 10
-83.88330726950596
 20
1323.023648068234
 30
0.0
 10
-83.88330726950596
 20
1323.023648068234
 30
0.0
 10
-85.76398613557726
 20
1320.93006216072
 30
0.0
 10
-88.70196550356698
 20
1320.654454340083
 30
0.0
 10
-91.63960036178091
 20
1320.378846519446
 30
0.0
 10
-102.510606337029
 20
1322.197341370987
 30
0.0
 10
-112.0301004618288
 20
1322.142047551971
 30
0.0
 10
-121.5492500768527
 20
1322.086925987844
 30
0.0
 10
-135.8278022445007
 20
1322.142047551971
 30
0.0
 10
-148.1677979037437
 20
1322.142047551971
 30
0.0
  0
SPLINE
  5
10A
330
1F
100
AcDbEntity
  8
\U+30EC\U+30A4\U+30E4\U+30FC 2
 62
   250
420
  2234132
370
    35
100
AcDbSpline
210
0.0
220
0.0
230
1.0
 70
     8
 71
     3
 72
     8
 73
     4
 74
     0
 42
0.0000000001
 43
0.0000000001
 40
0.0
 40
0.0
 40
0.0
 40
0.0
 40
1.0
 40
1.0
 40
1.0
 40
1.0
 10
45.50836334357072
 20
1237.506330932127
 30
0.0
 10
43.83370132342554
 20
1240.812246740667
 30
0.0
 10
41.89480030524471
 20
1243.126663414465
 30
0.0
 10
38.36908725974671
 20
1247.093865737646
 30
0.0
  0
SPLINE
  5
10B
330
1F
100
AcDbEntity
  8
\U+30EC\U+30A4\U+30E4\U+30FC 2
 62
   250
420
  2234132
370
    35
100
AcDbSpline
210
0.0
220
0.0
230
1.0
 70
     8
 71
     3
 72
     8
 73
     4
 74
     0
 42
0.0000000001
 43
0.0000000001
 40
0.0
 40
0.0
 40
0.0
 40
0.0
 40
1.0
 40
1.0
 40
1.0
 40
1.0
 10
3.729318322993528
 20
1288.833292134007
 30
0.0
 10
-4.291558277092875
 20
1294.536306962536
 30
0.0
 10
-10.1971448537908
 20
1297.181108511323
 30
0.0
 10
-17.07218193957915
 20
1300.735243613325
 30
0.0
  0
SPLINE
  5
10C
330
1F
100
AcDbEntity
  8
\U+30EC\U+30A4\U+30E4\U+30FC 2
 62
   250
420
  2234132
370
    35
100
AcDbSpline
210
0.0
220
0.0
230
1.0
 70
     8
 71
     3
 72
     8
 73
     4
 74
     0
 42
0.0000000001
 43
0.0000000001
 40
0.0
 40
0.0
 40
0.0
 40
0.0
 40
1.0
 40
1.0
 40
1.0
 40
1.0
 10
-73.04192913497633
 20
1318.257527574981
 30
0.0
 10
-78.94751571167426
 20
1319.579928349375
 30
0.0
 10
-84.14754626754163
 20
1320.40640730151
 30
0.0
 10
-88.11423182605871
 20
1320.654454340083
 30
0.0
  0
SPLINE
  5
10D
330
1F
100
AcDbEntity
  8
\U+30EC\U+30A4\U+30E4\U+30FC 2
 62
   250
420
  2234132
370
    35
100
AcDbSpline
210
0.0
220
0.0
230
1.0
 70
     8
 71
     3
 72
    23
 73
    19
 74
     0
 42
0.0000000001
 43
0.0000000001
 40
0.0
 40
0.0
 40
0.0
 40
0.0
 40
1.0
 40
1.0
 40
1.0
 40
2.0
 40
2.0
 40
2.0
 40
3.0
 40
3.0
 40
3.0
 40
4.0
 40
4.0
 40
4.0
 40
5.0
 40
5.0
 40
5.0
 40
6.0
 40
6.0
 40
6.0
 40
6.0
 10
55.11570746119848
 20
914.3360074134359
 30
0.0
 10
56.43793598070418
 20
914.3360074134359
 30
0.0
 10
59.43482652035505
 20
914.418689759627
 30
0.0
 10
61.90289455415881
 20
913.509356206413
 30
0.0
 10
64.37061807818677
 20
912.6001949080869
 30
0.0
 10
69.74738214903756
 20
909.7900286669176
 30
0.0
 10
74.59497920426546
 20
907.1452271181304
 30
0.0
 10
79.44292076926915
 20
904.5004255693432
 30
0.0
 10
87.11101935894027
 20
900.6157333374656
 30
0.0
 10
94.60341796295535
 20
898.2188065723637
 30
0.0
 10
102.0951275474188
 20
895.8218798072619
 30
0.0
 10
108.7059256351715
 20
895.5738327686887
 30
0.0
 10
117.5202082489165
 20
894.9127185089359
 30
0.0
 10
126.3341463528857
 20
894.2514319942951
 30
0.0
 10
132.6803609328269
 20
893.1770782584747
 30
0.0
 10
140.4369985348777
 20
892.1852346139576
 30
0.0
 10
148.1932916271526
 20
891.1933909694404
 30
0.0
 10
157.5660245874632
 20
889.9535002863499
 30
0.0
 10
159.6224034391905
 20
891.3585834069347
 30
0.0
  0
SPLINE
  5
10E
330
1F
100
AcDbEntity
  8
\U+30EC\U+30A4\U+30E4\U+30FC 2
  6
AI-Linetype-1
 62
   250
420
  2234132
370
    35
100
AcDbSpline
210
0.0
220
0.0
230
1.0
 70
     8
 71
     3
 72
    62
 73
    58
 74
     0
 42
0.0000000001
 43
0.0000000001
 40
0.0
 40
0.0
 40
0.0
 40
0.0
 40
1.0
 40
1.0
 40
1.0
 40
2.0
 40
2.0
 40
2.0
 40
3.0
 40
3.0
 40
3.0
 40
4.0
 40
4.0
 40
4.0
 40
5.0
 40
5.0
 40
5.0
 40
6.0
 40
6.0
 40
6.0
 40
7.0
 40
7.0
 40
7.0
 40
8.0
 40
8.0
 40
8.0
 40
9.0
 40
9.0
 40
9.0
 40
10.0
 40
10.0
 40
10.0
 40
11.0
 40
11.0
 40
11.0
 40
12.0
 40
12.0
 40
12.0
 40
13.0
 40
13.0
 40
13.0
 40
14.0
 40
14.0
 40
14.0
 40
15.0
 40
15.0
 40
15.0
 40
16.0
 40
16.0
 40
16.0
 40
17.0
 40
17.0
 40
17.0
 40
18.0
 40
18.0
 40
18.0
 40
19.0
 40
19.0
 40
19.0
 40
19.0
 10
154.45131170449
 20
890.6974691471818
 30
0.0
 10
155.7735402239957
 20
891.8545052291933
 30
0.0
 10
156.5666017278785
 20
895.6565151148798
 30
0.0
 10
156.3905572324466
 20
899.2106502168809
 30
0.0
 10
156.214168227239
 20
902.7646130639943
 30
0.0
 10
156.3905572324466
 20
912.5176848167838
 30
0.0
 10
157.0072297311218
 20
924.3369539499108
 30
0.0
 10
157.6245912493485
 20
936.1562230830378
 30
0.0
 10
157.8888302473842
 20
943.9254352919052
 30
0.0
 10
158.6822362610428
 20
955.3314649489647
 30
0.0
 10
159.4752977649255
 20
966.7374946060243
 30
0.0
 10
160.1805092759803
 20
978.1435242630839
 30
0.0
 10
161.2381542876745
 20
994.7566469264146
 30
0.0
 10
162.2957992993688
 20
1011.369769589745
 30
0.0
 10
163.0010108104235
 20
1025.007361319525
 30
0.0
 10
163.8822668169101
 20
1040.215228607383
 30
0.0
 10
164.7638673331725
 20
1055.423268150129
 30
0.0
 10
165.116300833812
 20
1065.341704595301
 30
0.0
 10
165.3808843416235
 20
1082.781133955878
 30
0.0
 10
165.6454678494349
 20
1100.220907826232
 30
0.0
 10
165.8215123448668
 20
1116.916540580866
 30
0.0
 10
165.9979013500744
 20
1130.30625752696
 30
0.0
 10
166.1739458455062
 20
1143.695974473054
 30
0.0
 10
165.5572733468311
 20
1156.011165428439
 30
0.0
 10
165.5572733468311
 20
1171.467079754871
 30
0.0
 10
165.5572733468311
 20
1186.922994081302
 30
0.0
 10
166.2621403481101
 20
1203.784163783206
 30
0.0
 10
165.4690788442273
 20
1218.744156287379
 30
0.0
 10
164.6756728305687
 20
1233.70432104644
 30
0.0
 10
162.3839938019726
 20
1250.895703368444
 30
0.0
 10
160.6211372792236
 20
1260.400900337549
 30
0.0
 10
158.8582807564746
 20
1269.906097306653
 30
0.0
 10
155.3329122207524
 20
1279.493632112172
 30
0.0
 10
152.688455181741
 20
1291.230218899108
 30
0.0
 10
150.0443426525054
 20
1302.966805686044
 30
0.0
 10
147.7526636239093
 20
1310.901382587294
 30
0.0
 10
147.6644691213055
 20
1325.034896139332
 30
0.0
 10
147.5762746187017
 20
1339.16840969137
 30
0.0
 10
147.8405136167373
 20
1348.177684838215
 30
0.0
 10
146.5186296070074
 20
1360.575558139792
 30
0.0
 10
145.1964010875017
 20
1372.973086931593
 30
0.0
 10
143.6099335699604
 20
1379.089513491078
 30
0.0
 10
140.1724150270662
 20
1392.644595129554
 30
0.0
 10
136.734896484172
 20
1406.199504513142
 30
0.0
 10
133.6498114419173
 20
1415.2086074051
 30
0.0
 10
129.4192313951404
 20
1425.953178292631
 30
0.0
 10
125.1883068385876
 20
1436.698093689937
 30
0.0
 10
121.5743992904858
 20
1446.203118404154
 30
0.0
 10
115.2285292203204
 20
1459.840882388821
 30
0.0
 10
108.8819701306034
 20
1473.478301863712
 30
0.0
 10
104.2107620805831
 20
1482.404894664367
 30
0.0
 10
96.54231898113619
 20
1492.323158854651
 30
0.0
 10
88.87422039146507
 20
1502.241423044934
 30
0.0
 10
81.00527260250477
 20
1510.363930028881
 30
0.0
 10
70.01162114707323
 20
1520.672868304917
 30
0.0
 10
63.22477856388871
 20
1527.037169648088
 30
0.0
 10
61.55011654374353
 20
1529.351241812111
 30
0.0
 10
41.89480030524471
 20
1544.311406571171
 30
0.0
  0
SPLINE
  5
110
330
1F
100
AcDbEntity
  8
\U+30EC\U+30A4\U+30E4\U+30FC 2
 62
   250
420
  2234132
370
    35
100
AcDbSpline
210
0.0
220
0.0
230
1.0
 70
     8
 71
     3
 72
    89
 73
    85
 74
     0
 42
0.0000000001
 43
0.0000000001
 40
0.0
 40
0.0
 40
0.0
 40
0.0
 40
1.0
 40
1.0
 40
1.0
 40
2.0
 40
2.0
 40
2.0
 40
3.0
 40
3.0
 40
3.0
 40
4.0
 40
4.0
 40
4.0
 40
5.0
 40
5.0
 40
5.0
 40
6.0
 40
6.0
 40
6.0
 40
7.0
 40
7.0
 40
7.0
 40
8.0
 40
8.0
 40
8.0
 40
9.0
 40
9.0
 40
9.0
 40
10.0
 40
10.0
 40
10.0
 40
11.0
 40
11.0
 40
11.0
 40
12.0
 40
12.0
 40
12.0
 40
13.0
 40
13.0
 40
13.0
 40
14.0
 40
14.0
 40
14.0
 40
15.0
 40
15.0
 40
15.0
 40
16.0
 40
16.0
 40
16.0
 40
17.0
 40
17.0
 40
17.0
 40
18.0
 40
18.0
 40
18.0
 40
19.0
 40
19.0
 40
19.0
 40
20.0
 40
20.0
 40
20.0
 40
21.0
 40
21.0
 40
21.0
 40
22.0
 40
22.0
 40
22.0
 40
23.0
 40
23.0
 40
23.0
 40
24.0
 40
24.0
 40
24.0
 40
25.0
 40
25.0
 40
25.0
 40
26.0
 40
26.0
 40
26.0
 40
27.0
 40
27.0
 40
27.0
 40
28.0
 40
28.0
 40
28.0
 40
28.0
 10
-148.050664579973
 20
903.0400486297433
 30
0.0
 10
-162.9758615967904
 20
903.0400486297433
 30
0.0
 10
-189.0652424080585
 20
902.4888329884694
 30
0.0
 10
-209.9845650139534
 20
902.5994206265
 30
0.0
 10
-230.9035431100726
 20
902.7098360096427
 30
0.0
 10
-267.5704075676105
 20
901.7179923651255
 30
0.0
 10
-282.0256932502419
 20
901.8280632384923
 30
0.0
 10
-296.4809789328734
 20
901.9381341118592
 30
0.0
 10
-324.9209499443987
 20
901.2768475972184
 30
0.0
 10
-331.9723760353947
 20
901.497333853728
 30
0.0
 10
-339.0234576166148
 20
901.7179923651255
 30
0.0
 10
-342.1967371614734
 20
901.2771921069942
 30
0.0
 10
-345.6049723734249
 20
903.0403931395191
 30
0.0
 10
-349.0132075853764
 20
904.8035941720439
 30
0.0
 10
-349.7184190964311
 20
909.4320830098653
 30
0.0
 10
-349.7184190964311
 20
909.4320830098653
 30
0.0
 10
-349.7184190964311
 20
909.4320830098653
 30
0.0
 10
-361.9399033928002
 20
906.6766938230476
 30
0.0
 10
-365.5834387816205
 20
904.9136650454108
 30
0.0
 10
-369.2269741704408
 20
903.1504640128859
 30
0.0
 10
-374.750154896005
 20
900.0645176961917
 30
0.0
 10
-381.0963694759462
 20
896.3178016295205
 30
0.0
 10
-387.4425840558874
 20
892.5709133079614
 30
0.0
 10
-392.1434199466261
 20
891.0276817672824
 30
0.0
 10
-402.2503032391583
 20
889.8156963760315
 30
0.0
 10
-412.3571865316906
 20
888.6037109847806
 30
0.0
 10
-423.7570150127858
 20
889.1544098613908
 30
0.0
 10
-427.5176837253767
 20
889.0443389880239
 30
0.0
 10
-431.2783524379677
 20
888.934268114657
 30
0.0
 10
-444.9126713248769
 20
886.7998577987119
 30
0.0
 10
-450.7869075119774
 20
886.9507530805106
 30
0.0
 10
-459.3658899488536
 20
887.1708948272443
 30
0.0
 10
-455.8405214131314
 20
891.3585834069347
 30
0.0
 10
-455.8405214131314
 20
891.3585834069347
 30
0.0
 10
-455.8405214131314
 20
891.3585834069347
 30
0.0
 10
-456.7810331010549
 20
891.1384416602009
 30
0.0
 10
-457.0156442583721
 20
895.2158871116364
 30
0.0
 10
-457.2505999254651
 20
899.2931603081842
 30
0.0
 10
-459.3662344586294
 20
928.6069803660164
 30
0.0
 10
-460.1889238032306
 20
950.3171251622515
 30
0.0
 10
-461.0112686380561
 20
972.0272699584866
 30
0.0
 10
-464.3023705262369
 20
1022.169806551179
 30
0.0
 10
-465.4774933714776
 20
1045.312250740287
 30
0.0
 10
-466.6526162167183
 20
1068.455039439171
 30
0.0
 10
-468.0626947290521
 20
1096.997157599219
 30
0.0
 10
-468.0626947290521
 20
1115.621528333648
 30
0.0
 10
-468.0626947290521
 20
1134.246071322965
 30
0.0
 10
-468.2979949059209
 20
1165.103122921476
 30
0.0
 10
-467.7102612284126
 20
1186.372295204692
 30
0.0
 10
-467.1225275509043
 20
1207.64129523302
 30
0.0
 10
-466.4173160398495
 20
1225.824865709318
 30
0.0
 10
-463.8317701724993
 20
1245.440735578488
 30
0.0
 10
-461.2465688149248
 20
1265.056777702546
 30
0.0
 10
-457.9558114365199
 20
1280.485648011577
 30
0.0
 10
-456.4279105808639
 20
1288.309981784572
 30
0.0
 10
-454.9003542349836
 20
1296.134143302679
 30
0.0
 10
-452.7847197018194
 20
1309.248424683024
 30
0.0
 10
-451.8445525236716
 20
1316.081087066389
 30
0.0
 10
-450.9047298552996
 20
1322.913749449755
 30
0.0
 10
-449.3764844898679
 20
1329.19485168207
 30
0.0
 10
-448.0838838110806
 20
1342.860176448801
 30
0.0
 10
-446.7912831322934
 20
1356.525501215532
 30
0.0
 10
-445.3808601101839
 20
1372.064270143042
 30
0.0
 10
-443.0306144197024
 20
1385.068308395133
 30
0.0
 10
-440.680368729221
 20
1398.071657627671
 30
0.0
 10
-435.626754828067
 20
1414.0513990682
 30
0.0
 10
-429.9857517591805
 20
1427.495893068646
 30
0.0
 10
-424.3444041805182
 20
1440.941076088643
 30
0.0
 10
-416.4706332546968
 20
1457.471688660671
 30
0.0
 10
-410.8296301858103
 20
1468.932495372082
 30
0.0
 10
-405.1886271169238
 20
1480.393302083493
 30
0.0
 10
-392.7311536241344
 20
1499.128088201064
 30
0.0
 10
-380.3911579648914
 20
1511.581083066769
 30
0.0
 10
-368.0515068154243
 20
1524.034077932473
 30
0.0
 10
-349.7184190964311
 20
1536.597315926432
 30
0.0
 10
-332.5601097129029
 20
1547.948051764476
 30
0.0
 10
-315.4018003293747
 20
1559.29878760252
 30
0.0
 10
-295.1880337443104
 20
1564.698978338125
 30
0.0
 10
-276.5018235051261
 20
1570.980425080216
 30
0.0
 10
-257.8159577757177
 20
1577.262044077196
 30
0.0
 10
-232.7842219761439
 20
1585.086550105079
 30
0.0
 10
-218.2111139501902
 20
1587.400794523989
 30
0.0
 10
-203.6383504340122
 20
1589.7150389429
 30
0.0
 10
-168.7339979894476
 20
1596.106728813246
 30
0.0
 10
-148.0503200701972
 20
1596.106728813246
 30
0.0
  0
SPLINE
  5
111
330
1F
100
AcDbEntity
  8
\U+30EC\U+30A4\U+30E4\U+30FC 2
 62
   250
420
  2234132
370
    35
100
AcDbSpline
210
0.0
220
0.0
230
1.0
 70
     8
 71
     3
 72
    41
 73
    37
 74
     0
 42
0.0000000001
 43
0.0000000001
 40
0.0
 40
0.0
 40
0.0
 40
0.0
 40
1.0
 40
1.0
 40
1.0
 40
2.0
 40
2.0
 40
2.0
 40
3.0
 40
3.0
 40
3.0
 40
4.0
 40
4.0
 40
4.0
 40
5.0
 40
5.0
 40
5.0
 40
6.0
 40
6.0
 40
6.0
 40
7.0
 40
7.0
 40
7.0
 40
8.0
 40
8.0
 40
8.0
 40
9.0
 40
9.0
 40
9.0
 40
10.0
 40
10.0
 40
10.0
 40
11.0
 40
11.0
 40
11.0
 40
12.0
 40
12.0
 40
12.0
 40
12.0
 10
-349.7184190964311
 20
909.4320830098653
 30
0.0
 10
-349.7184190964311
 20
909.4320830098653
 30
0.0
 10
-352.0683202771368
 20
913.6199438444436
 30
0.0
 10
-351.9508424435903
 20
921.9951487489363
 30
0.0
 10
-351.8333646100438
 20
930.3705259083171
 30
0.0
 10
-350.8935419416719
 20
940.0686483518671
 30
0.0
 10
-352.5385761210986
 20
964.3131793137467
 30
0.0
 10
-354.1836103005253
 20
988.5577102756263
 30
0.0
 10
-355.1241219884488
 20
1030.104211197541
 30
0.0
 10
-355.7115111561813
 20
1058.206045864122
 30
0.0
 10
-356.2989003239138
 20
1086.307880530704
 30
0.0
 10
-355.9464668232742
 20
1112.866828166382
 30
0.0
 10
-355.9464668232742
 20
1134.466557579475
 30
0.0
 10
-355.9464668232742
 20
1156.066286992567
 30
0.0
 10
-354.418910477394
 20
1168.160991691443
 30
0.0
 10
-352.9202929526807
 20
1181.219979252773
 30
0.0
 10
-351.4220199377432
 20
1194.279311323878
 30
0.0
 10
-347.984501394849
 20
1219.40544280202
 30
0.0
 10
-345.1639998604058
 20
1228.579738131472
 30
0.0
 10
-342.3434983259625
 20
1237.754205715812
 30
0.0
 10
-339.2584132837079
 20
1242.30018446233
 30
0.0
 10
-339.2584132837079
 20
1243.622412981836
 30
0.0
 10
-339.2584132837079
 20
1244.944986011117
 30
0.0
 10
-339.8754302921588
 20
1250.482636147265
 30
0.0
 10
-344.8994163525943
 20
1255.111124985086
 30
0.0
 10
-349.9234024130299
 20
1259.739613822908
 30
0.0
 10
-365.083899606716
 20
1270.567211566406
 30
0.0
 10
-377.9523732620303
 20
1276.352736486239
 30
0.0
 10
-390.8211914271204
 20
1282.13843366096
 30
0.0
 10
-400.0761020441087
 20
1285.361839378196
 30
0.0
 10
-413.1209647046306
 20
1289.825135778524
 30
0.0
 10
-426.1658273651526
 20
1294.288432178851
 30
0.0
 10
-433.8342704645995
 20
1297.842395025964
 30
0.0
 10
-440.5329185451802
 20
1300.982946142122
 30
0.0
 10
-447.2319111355367
 20
1304.124014022944
 30
0.0
 10
-451.5506856849175
 20
1306.934180264113
 30
0.0
 10
-452.6083306966117
 20
1310.488143111226
 30
0.0
  0
SPLINE
  5
112
330
1F
100
AcDbEntity
  8
\U+30EC\U+30A4\U+30E4\U+30FC 2
 62
   250
420
  2234132
370
    35
100
AcDbSpline
210
0.0
220
0.0
230
1.0
 70
     8
 71
     3
 72
    44
 73
    40
 74
     0
 42
0.0000000001
 43
0.0000000001
 40
0.0
 40
0.0
 40
0.0
 40
0.0
 40
1.0
 40
1.0
 40
1.0
 40
2.0
 40
2.0
 40
2.0
 40
3.0
 40
3.0
 40
3.0
 40
4.0
 40
4.0
 40
4.0
 40
5.0
 40
5.0
 40
5.0
 40
6.0
 40
6.0
 40
6.0
 40
7.0
 40
7.0
 40
7.0
 40
8.0
 40
8.0
 40
8.0
 40
9.0
 40
9.0
 40
9.0
 40
10.0
 40
10.0
 40
10.0
 40
11.0
 40
11.0
 40
11.0
 40
12.0
 40
12.0
 40
12.0
 40
13.0
 40
13.0
 40
13.0
 40
13.0
 10
-339.2584132837079
 20
1244.118507058982
 30
0.0
 10
-339.2584132837079
 20
1244.118507058982
 30
0.0
 10
-335.6445057356061
 20
1245.854147309443
 30
0.0
 10
-332.647959705731
 20
1248.912360589186
 30
0.0
 10
-329.6510691660801
 20
1251.970229359153
 30
0.0
 10
-323.216660083535
 20
1260.566092775043
 30
0.0
 10
-316.5180120029543
 20
1268.50084193118
 30
0.0
 10
-309.8190194125978
 20
1276.435246577542
 30
0.0
 10
-303.737388340468
 20
1283.791563820118
 30
0.0
 10
-299.065835780672
 20
1289.990328216018
 30
0.0
 10
-294.3942832208759
 20
1296.189437121694
 30
0.0
 10
-292.631426698127
 20
1299.33016049274
 30
0.0
 10
-291.926559696848
 20
1301.313675526887
 30
0.0
 10
-291.2213481857933
 20
1303.297362815921
 30
0.0
 10
-292.3671877000913
 20
1306.768815571731
 30
0.0
 10
-294.6588667286874
 20
1312.554512746452
 30
0.0
 10
-296.9505457572835
 20
1318.340037666285
 30
0.0
 10
-301.8863373151153
 20
1327.514505250625
 30
0.0
 10
-308.0561628898488
 20
1339.829523951122
 30
0.0
 10
-314.2263329743582
 20
1352.144887161396
 30
0.0
 10
-321.2774145555784
 20
1363.633426909759
 30
0.0
 10
-328.4170351491782
 20
1376.610076634673
 30
0.0
 10
-335.5563112330022
 20
1389.586381849811
 30
0.0
 10
-340.8448808012492
 20
1396.198557976667
 30
0.0
 10
-350.0997914182375
 20
1405.124978522434
 30
0.0
 10
-359.3547020352258
 20
1414.0513990682
 30
0.0
 10
-365.5245276099594
 20
1416.117768703426
 30
0.0
 10
-374.2506157211005
 20
1419.919778589112
 30
0.0
 10
-382.9767038322417
 20
1423.721788474799
 30
0.0
 10
-388.088884395281
 20
1426.03603289371
 30
0.0
 10
-390.1159799160657
 20
1426.945021937148
 30
0.0
 10
-392.1434199466261
 20
1427.854355490362
 30
0.0
 10
-396.8149725064222
 20
1428.598324351194
 30
0.0
 10
-400.6049245499559
 20
1430.664521731531
 30
0.0
 10
-404.3948765934895
 20
1432.730719111869
 30
0.0
 10
-406.2459276188423
 20
1433.392177881397
 30
0.0
 10
-411.5344971870893
 20
1440.830832960388
 30
0.0
 10
-416.8230667553363
 20
1448.269488039379
 30
0.0
 10
-417.0873057533719
 20
1450.335857674605
 30
0.0
 10
-417.7925172644267
 20
1454.137867560291
 30
0.0
  0
SPLINE
  5
113
330
1F
100
AcDbEntity
  8
\U+30EC\U+30A4\U+30E4\U+30FC 2
 62
   250
420
  2234132
370
    35
100
AcDbSpline
210
0.0
220
0.0
230
1.0
 70
     8
 71
     3
 72
    41
 73
    37
 74
     0
 42
0.0000000001
 43
0.0000000001
 40
0.0
 40
0.0
 40
0.0
 40
0.0
 40
1.0
 40
1.0
 40
1.0
 40
2.0
 40
2.0
 40
2.0
 40
3.0
 40
3.0
 40
3.0
 40
4.0
 40
4.0
 40
4.0
 40
5.0
 40
5.0
 40
5.0
 40
6.0
 40
6.0
 40
6.0
 40
7.0
 40
7.0
 40
7.0
 40
8.0
 40
8.0
 40
8.0
 40
9.0
 40
9.0
 40
9.0
 40
10.0
 40
10.0
 40
10.0
 40
11.0
 40
11.0
 40
11.0
 40
12.0
 40
12.0
 40
12.0
 40
12.0
 10
-291.6619761890365
 20
1303.297362815921
 30
0.0
 10
-291.6619761890365
 20
1303.297362815921
 30
0.0
 10
-291.3095426883971
 20
1301.065800743201
 30
0.0
 10
-289.1939081552328
 20
1299.826082314999
 30
0.0
 10
-287.0786181318443
 20
1298.586191631908
 30
0.0
 10
-279.4983695350012
 20
1300.239149536178
 30
0.0
 10
-276.5018235051261
 20
1301.892279695336
 30
0.0
 10
-273.5049329654753
 20
1303.545409854494
 30
0.0
 10
-263.3684218322246
 20
1307.347419740181
 30
0.0
 10
-249.9711256710632
 20
1311.232111972058
 30
0.0
 10
-236.573485000126
 20
1315.116804203936
 30
0.0
 10
-228.1119803967963
 20
1316.769762108206
 30
0.0
 10
-221.9421548220627
 20
1318.75344939724
 30
0.0
 10
-215.7723292473291
 20
1320.737136686274
 30
0.0
 10
-212.2466162018311
 20
1322.390094590545
 30
0.0
 10
-210.6598041745139
 20
1325.200260831714
 30
0.0
 10
-209.0733366569726
 20
1328.010427072883
 30
0.0
 10
-208.2802751530898
 20
1332.886962949278
 30
0.0
 10
-207.575063642035
 20
1343.797243038967
 30
0.0
 10
-206.8698521309803
 20
1354.70717861888
 30
0.0
 10
-208.3681251459178
 20
1365.204046977613
 30
0.0
 10
-207.6632581446389
 20
1378.924148798696
 30
0.0
 10
-206.9580466335841
 20
1392.644595129554
 30
0.0
 10
-207.575063642035
 20
1404.877103738748
 30
0.0
 10
-208.4563196485216
 20
1416.944247655561
 30
0.0
 10
-209.337920164784
 20
1429.011391572373
 30
0.0
 10
-210.5719541816859
 20
1447.194962048671
 30
0.0
 10
-214.1855172200119
 20
1462.733730976181
 30
0.0
 10
-217.7994247681137
 20
1478.272155393916
 30
0.0
 10
-221.9421548220627
 20
1483.06600892412
 30
0.0
 10
-229.6102534117338
 20
1497.199522476157
 30
0.0
 10
-237.2786965111807
 20
1511.333036028195
 30
0.0
 10
-245.8283956171142
 20
1524.888117666671
 30
0.0
 10
-254.2899002204439
 20
1538.360516958956
 30
0.0
 10
-262.7517493335495
 20
1551.832743996353
 30
0.0
 10
-272.8879159570243
 20
1567.123293630403
 30
0.0
 10
-281.1730315551464
 20
1569.35502795801
 30
0.0
  0
SPLINE
  5
114
330
1F
100
AcDbEntity
  8
\U+30EC\U+30A4\U+30E4\U+30FC 2
 62
   250
420
  2234132
370
    35
100
AcDbSpline
210
0.0
220
0.0
230
1.0
 70
     8
 71
     3
 72
    14
 73
    10
 74
     0
 42
0.0000000001
 43
0.0000000001
 40
0.0
 40
0.0
 40
0.0
 40
0.0
 40
1.0
 40
1.0
 40
1.0
 40
2.0
 40
2.0
 40
2.0
 40
3.0
 40
3.0
 40
3.0
 40
3.0
 10
-212.3348107044349
 20
1323.023648068234
 30
0.0
 10
-212.3348107044349
 20
1323.023648068234
 30
0.0
 10
-210.4541318383636
 20
1320.93006216072
 30
0.0
 10
-207.5161524703739
 20
1320.654454340083
 30
0.0
 10
-204.5781731023842
 20
1320.378674264558
 30
0.0
 10
-193.7071671271361
 20
1322.197341370987
 30
0.0
 10
-184.1880175121121
 20
1322.142047551971
 30
0.0
 10
-174.6685233873124
 20
1322.086925987844
 30
0.0
 10
-160.3899712196644
 20
1322.142047551971
 30
0.0
 10
-148.0503200701972
 20
1322.142047551971
 30
0.0
  0
SPLINE
  5
115
330
1F
100
AcDbEntity
  8
\U+30EC\U+30A4\U+30E4\U+30FC 2
 62
   250
420
  2234132
370
    35
100
AcDbSpline
210
0.0
220
0.0
230
1.0
 70
     8
 71
     3
 72
     8
 73
     4
 74
     0
 42
0.0000000001
 43
0.0000000001
 40
0.0
 40
0.0
 40
0.0
 40
0.0
 40
1.0
 40
1.0
 40
1.0
 40
1.0
 10
-341.7264813175116
 20
1237.506330932127
 30
0.0
 10
-340.0518192973664
 20
1240.812246740667
 30
0.0
 10
-338.1125737694098
 20
1243.126663414465
 30
0.0
 10
-334.5868607239118
 20
1247.093865737646
 30
0.0
  0
SPLINE
  5
116
330
1F
100
AcDbEntity
  8
\U+30EC\U+30A4\U+30E4\U+30FC 2
 62
   250
420
  2234132
370
    35
100
AcDbSpline
210
0.0
220
0.0
230
1.0
 70
     8
 71
     3
 72
     8
 73
     4
 74
     0
 42
0.0000000001
 43
0.0000000001
 40
0.0
 40
0.0
 40
0.0
 40
0.0
 40
1.0
 40
1.0
 40
1.0
 40
1.0
 10
-299.9474362969344
 20
1288.833292134007
 30
0.0
 10
-291.926559696848
 20
1294.536306962536
 30
0.0
 10
-286.0209731201501
 20
1297.181108511323
 30
0.0
 10
-279.1459360343617
 20
1300.735243613325
 30
0.0
  0
SPLINE
  5
117
330
1F
100
AcDbEntity
  8
\U+30EC\U+30A4\U+30E4\U+30FC 2
 62
   250
420
  2234132
370
    35
100
AcDbSpline
210
0.0
220
0.0
230
1.0
 70
     8
 71
     3
 72
     8
 73
     4
 74
     0
 42
0.0000000001
 43
0.0000000001
 40
0.0
 40
0.0
 40
0.0
 40
0.0
 40
1.0
 40
1.0
 40
1.0
 40
1.0
 10
-223.1761888389645
 20
1318.257527574981
 30
0.0
 10
-217.2706022622666
 20
1319.579928349375
 30
0.0
 10
-212.0702271966234
 20
1320.40640730151
 30
0.0
 10
-208.1038861478822
 20
1320.654454340083
 30
0.0
  0
SPLINE
  5
118
330
1F
100
AcDbEntity
  8
\U+30EC\U+30A4\U+30E4\U+30FC 2
 62
   250
420
  2234132
370
    35
100
AcDbSpline
210
0.0
220
0.0
230
1.0
 70
     8
 71
     3
 72
    23
 73
    19
 74
     0
 42
0.0000000001
 43
0.0000000001
 40
0.0
 40
0.0
 40
0.0
 40
0.0
 40
1.0
 40
1.0
 40
1.0
 40
2.0
 40
2.0
 40
2.0
 40
3.0
 40
3.0
 40
3.0
 40
4.0
 40
4.0
 40
4.0
 40
5.0
 40
5.0
 40
5.0
 40
6.0
 40
6.0
 40
6.0
 40
6.0
 10
-351.3338254351394
 20
914.3360074134359
 30
0.0
 10
-352.6560539546451
 20
914.3360074134359
 30
0.0
 10
-355.6525999845201
 20
914.418689759627
 30
0.0
 10
-358.1206680183239
 20
913.509356206413
 30
0.0
 10
-360.5887360521276
 20
912.6001949080869
 30
0.0
 10
-365.9651556132026
 20
909.7900286669176
 30
0.0
 10
-370.8130971782064
 20
907.1452271181304
 30
0.0
 10
-375.6606942334342
 20
904.5004255693432
 30
0.0
 10
-383.3291373328811
 20
900.6157333374656
 30
0.0
 10
-390.8211914271204
 20
898.2188065723637
 30
0.0
 10
-398.3132455213597
 20
895.8218798072619
 30
0.0
 10
-404.9236990993366
 20
895.5738327686887
 30
0.0
 10
-413.7379817130816
 20
894.9127185089359
 30
0.0
 10
-422.5522643268266
 20
894.2514319942951
 30
0.0
 10
-428.8984789067678
 20
893.1770782584747
 30
0.0
 10
-436.6547719990427
 20
892.1852346139576
 30
0.0
 10
-444.4110650913177
 20
891.1933909694404
 30
0.0
 10
-453.7837980516283
 20
889.9535002863499
 30
0.0
 10
-455.8405214131314
 20
891.3585834069347
 30
0.0
  0
SPLINE
  5
119
330
1F
100
AcDbEntity
  8
\U+30EC\U+30A4\U+30E4\U+30FC 2
  6
AI-Linetype-2
 62
   250
420
  2234132
370
    35
100
AcDbSpline
210
0.0
220
0.0
230
1.0
 70
     8
 71
     3
 72
    62
 73
    58
 74
     0
 42
0.0000000001
 43
0.0000000001
 40
0.0
 40
0.0
 40
0.0
 40
0.0
 40
1.0
 40
1.0
 40
1.0
 40
2.0
 40
2.0
 40
2.0
 40
3.0
 40
3.0
 40
3.0
 40
4.0
 40
4.0
 40
4.0
 40
5.0
 40
5.0
 40
5.0
 40
6.0
 40
6.0
 40
6.0
 40
7.0
 40
7.0
 40
7.0
 40
8.0
 40
8.0
 40
8.0
 40
9.0
 40
9.0
 40
9.0
 40
10.0
 40
10.0
 40
10.0
 40
11.0
 40
11.0
 40
11.0
 40
12.0
 40
12.0
 40
12.0
 40
13.0
 40
13.0
 40
13.0
 40
14.0
 40
14.0
 40
14.0
 40
15.0
 40
15.0
 40
15.0
 40
16.0
 40
16.0
 40
16.0
 40
17.0
 40
17.0
 40
17.0
 40
18.0
 40
18.0
 40
18.0
 40
19.0
 40
19.0
 40
19.0
 40
19.0
 10
-450.6694296784309
 20
890.6974691471818
 30
0.0
 10
-451.9913136881608
 20
891.8545052291933
 30
0.0
 10
-452.7847197018194
 20
895.6565151148798
 30
0.0
 10
-452.6083306966117
 20
899.2106502168809
 30
0.0
 10
-452.4319416914041
 20
902.7646130639943
 30
0.0
 10
-452.6083306966117
 20
912.5176848167838
 30
0.0
 10
-453.2253477050627
 20
924.3369539499108
 30
0.0
 10
-453.8423647135136
 20
936.1562230830378
 30
0.0
 10
-454.1069482213251
 20
943.9254352919052
 30
0.0
 10
-454.9000097252078
 20
955.3314649489647
 30
0.0
 10
-455.6934157388664
 20
966.7374946060243
 30
0.0
 10
-456.3986272499212
 20
978.1435242630839
 30
0.0
 10
-457.4562722616154
 20
994.7566469264146
 30
0.0
 10
-458.5139172733096
 20
1011.369769589745
 30
0.0
 10
-459.2187842745886
 20
1025.007361319525
 30
0.0
 10
-460.100384790851
 20
1040.215228607383
 30
0.0
 10
-460.9819853071134
 20
1055.423268150129
 30
0.0
 10
-461.3344188077529
 20
1065.341704595301
 30
0.0
 10
-461.5986578057885
 20
1082.781133955878
 30
0.0
 10
-461.8632413136
 20
1100.220907826232
 30
0.0
 10
-462.0396303188077
 20
1116.916540580866
 30
0.0
 10
-462.2156748142395
 20
1130.30625752696
 30
0.0
 10
-462.3920638194471
 20
1143.695974473054
 30
0.0
 10
-461.7750468109962
 20
1156.011165428439
 30
0.0
 10
-461.7750468109962
 20
1171.467079754871
 30
0.0
 10
-461.7750468109962
 20
1186.922994081302
 30
0.0
 10
-462.4802583220509
 20
1203.784163783206
 30
0.0
 10
-461.6868523083924
 20
1218.744156287379
 30
0.0
 10
-460.8937908045096
 20
1233.70432104644
 30
0.0
 10
-458.6021117759135
 20
1250.895703368444
 30
0.0
 10
-456.8392552531645
 20
1260.400900337549
 30
0.0
 10
-455.0763987304155
 20
1269.906097306653
 30
0.0
 10
-451.5506856849175
 20
1279.493632112172
 30
0.0
 10
-448.9062286459061
 20
1291.230218899108
 30
0.0
 10
-446.2621161166705
 20
1302.966805686044
 30
0.0
 10
-443.9704370880744
 20
1310.901382587294
 30
0.0
 10
-443.8822425854706
 20
1325.034896139332
 30
0.0
 10
-443.7943925926426
 20
1339.16840969137
 30
0.0
 10
-444.0586315906782
 20
1348.177684838215
 30
0.0
 10
-442.7364030711725
 20
1360.575558139792
 30
0.0
 10
-441.4145190614426
 20
1372.973086931593
 30
0.0
 10
-439.8277070341255
 20
1379.089513491078
 30
0.0
 10
-436.3901884912313
 20
1392.644595129554
 30
0.0
 10
-432.9526699483371
 20
1406.199504513142
 30
0.0
 10
-429.8679294158582
 20
1415.2086074051
 30
0.0
 10
-425.6370048593055
 20
1425.953178292631
 30
0.0
 10
-421.4064248125285
 20
1436.698093689937
 30
0.0
 10
-417.7925172644267
 20
1446.203118404154
 30
0.0
 10
-411.4463026844855
 20
1459.840882388821
 30
0.0
 10
-405.1000881045442
 20
1473.478301863712
 30
0.0
 10
-400.4285355447482
 20
1482.404894664367
 30
0.0
 10
-392.7604369550771
 20
1492.323158854651
 30
0.0
 10
-385.0919938556302
 20
1502.241423044934
 30
0.0
 10
-377.2233905764456
 20
1510.363930028881
 30
0.0
 10
-366.2297391210141
 20
1520.672868304917
 30
0.0
 10
-359.4428965378296
 20
1527.037169648088
 30
0.0
 10
-357.7682345176844
 20
1529.351241812111
 30
0.0
 10
-338.1125737694098
 20
1544.311406571171
 30
0.0
  0
POLYLINE
  5
11B
330
1F
100
AcDbEntity
  8
\U+30EC\U+30A4\U+30E4\U+30FC 2
 62
   250
420
  2234132
370
    18
100
AcDb2dPolyline
 66
     1
 10
0.0
 20
0.0
 30
0.0
  0
VERTEX
  5
11C
330
11B
100
AcDbEntity
  8
\U+30EC\U+30A4\U+30E4\U+30FC 2
 62
   250
420
  2234132
370
    18
100
AcDbVertex
100
AcDb2dVertex
 10
-159.5342089365867
 20
901.9381341118592
 30
0.0
  0
VERTEX
  5
11D
330
11B
100
AcDbEntity
  8
\U+30EC\U+30A4\U+30E4\U+30FC 2
 62
   250
420
  2234132
370
    18
100
AcDbVertex
100
AcDb2dVertex
 10
-159.5342089365867
 20
675.8802932532476
 30
0.0
  0
SEQEND
  5
11E
330
11B
100
AcDbEntity
  8
\U+30EC\U+30A4\U+30E4\U+30FC 2
370
    18
  0
POLYLINE
  5
11F
330
1F
100
AcDbEntity
  8
\U+30EC\U+30A4\U+30E4\U+30FC 2
 62
   250
420
  2234132
370
    18
100
AcDb2dPolyline
 66
     1
 10
0.0
 20
0.0
 30
0.0
  0
VERTEX
  5
120
330
11F
100
AcDbEntity
  8
\U+30EC\U+30A4\U+30E4\U+30FC 2
 62
   250
420
  2234132
370
    18
100
AcDbVertex
100
AcDb2dVertex
 10
-135.0054574096753
 20
901.9381341118592
 30
0.0
  0
VERTEX
  5
121
330
11F
100
AcDbEntity
  8
\U+30EC\U+30A4\U+30E4\U+30FC 2
 62
   250
420
  2234132
370
    18
100
AcDbVertex
100
AcDb2dVertex
 10
-135.0054574096753
 20
675.8802932532476
 30
0.0
  0
SEQEND
  5
122
330
11F
100
AcDbEntity
  8
\U+30EC\U+30A4\U+30E4\U+30FC 2
370
    18
  0
POLYLINE
  5
123
330
1F
100
AcDbEntity
  8
\U+30EC\U+30A4\U+30E4\U+30FC 2
 62
   250
420
  2234132
370
    18
100
AcDb2dPolyline
 66
     1
 10
0.0
 20
0.0
 30
0.0
  0
VERTEX
  5
124
330
123
100
AcDbEntity
  8
\U+30EC\U+30A4\U+30E4\U+30FC 2
 62
   250
420
  2234132
370
    18
100
AcDbVertex
100
AcDb2dVertex
 10
-31.98394307514052
 20
656.1061211420991
 30
0.0
  0
VERTEX
  5
125
330
123
100
AcDbEntity
  8
\U+30EC\U+30A4\U+30E4\U+30FC 2
 62
   250
420
  2234132
370
    18
100
AcDbVertex
100
AcDb2dVertex
 10
-259.0513698317228
 20
656.1061211420991
 30
0.0
  0
VERTEX
  5
126
330
123
100
AcDbEntity
  8
\U+30EC\U+30A4\U+30E4\U+30FC 2
 62
   250
420
  2234132
370
    18
100
AcDbVertex
100
AcDb2dVertex
 10
-259.0513698317228
 20
675.8527324711839
 30
0.0
  0
VERTEX
  5
127
330
123
100
AcDbEntity
  8
\U+30EC\U+30A4\U+30E4\U+30FC 2
 62
   250
420
  2234132
370
    18
100
AcDbVertex
100
AcDb2dVertex
 10
-31.98394307514052
 20
675.8527324711839
 30
0.0
  0
VERTEX
  5
128
330
123
100
AcDbEntity
  8
\U+30EC\U+30A4\U+30E4\U+30FC 2
 62
   250
420
  2234132
370
    18
100
AcDbVertex
100
AcDb2dVertex
 10
-31.98394307514052
 20
656.1061211420991
 30
0.0
  0
SEQEND
  5
129
330
123
100
AcDbEntity
  8
\U+30EC\U+30A4\U+30E4\U+30FC 2
370
    18
  0
SPLINE
  5
12A
330
1F
100
AcDbEntity
  8
\U+30EC\U+30A4\U+30E4\U+30FC 2
 62
   250
420
  2234132
370
    18
100
AcDbSpline
210
0.0
220
0.0
230
1.0
 70
     8
 71
     3
 72
   383
 73
   379
 74
     0
 42
0.0000000001
 43
0.0000000001
 40
0.0
 40
0.0
 40
0.0
 40
0.0
 40
1.0
 40
1.0
 40
1.0
 40
2.0
 40
2.0
 40
2.0
 40
3.0
 40
3.0
 40
3.0
 40
4.0
 40
4.0
 40
4.0
 40
5.0
 40
5.0
 40
5.0
 40
6.0
 40
6.0
 40
6.0
 40
7.0
 40
7.0
 40
7.0
 40
8.0
 40
8.0
 40
8.0
 40
9.0
 40
9.0
 40
9.0
 40
10.0
 40
10.0
 40
10.0
 40
11.0
 40
11.0
 40
11.0
 40
12.0
 40
12.0
 40
12.0
 40
13.0
 40
13.0
 40
13.0
 40
14.0
 40
14.0
 40
14.0
 40
15.0
 40
15.0
 40
15.0
 40
16.0
 40
16.0
 40
16.0
 40
17.0
 40
17.0
 40
17.0
 40
18.0
 40
18.0
 40
18.0
 40
19.0
 40
19.0
 40
19.0
 40
20.0
 40
20.0
 40
20.0
 40
21.0
 40
21.0
 40
21.0
 40
22.0
 40
22.0
 40
22.0
 40
23.0
 40
23.0
 40
23.0
 40
24.0
 40
24.0
 40
24.0
 40
25.0
 40
25.0
 40
25.0
 40
26.0
 40
26.0
 40
26.0
 40
27.0
 40
27.0
 40
27.0
 40
28.0
 40
28.0
 40
28.0
 40
29.0
 40
29.0
 40
29.0
 40
30.0
 40
30.0
 40
30.0
 40
31.0
 40
31.0
 40
31.0
 40
32.0
 40
32.0
 40
32.0
 40
33.0
 40
33.0
 40
33.0
 40
34.0
 40
34.0
 40
34.0
 40
35.0
 40
35.0
 40
35.0
 40
36.0
 40
36.0
 40
36.0
 40
37.0
 40
37.0
 40
37.0
 40
38.0
 40
38.0
 40
38.0
 40
39.0
 40
39.0
 40
39.0
 40
40.0
 40
40.0
 40
40.0
 40
41.0
 40
41.0
 40
41.0
 40
42.0
 40
42.0
 40
42.0
 40
43.0
 40
43.0
 40
43.0
 40
44.0
 40
44.0
 40
44.0
 40
45.0
 40
45.0
 40
45.0
 40
46.0
 40
46.0
 40
46.0
 40
47.0
 40
47.0
 40
47.0
 40
48.0
 40
48.0
 40
48.0
 40
49.0
 40
49.0
 40
49.0
 40
50.0
 40
50.0
 40
50.0
 40
51.0
 40
51.0
 40
51.0
 40
52.0
 40
52.0
 40
52.0
 40
53.0
 40
53.0
 40
53.0
 40
54.0
 40
54.0
 40
54.0
 40
55.0
 40
55.0
 40
55.0
 40
56.0
 40
56.0
 40
56.0
 40
57.0
 40
57.0
 40
57.0
 40
58.0
 40
58.0
 40
58.0
 40
59.0
 40
59.0
 40
59.0
 40
60.0
 40
60.0
 40
60.0
 40
61.0
 40
61.0
 40
61.0
 40
62.0
 40
62.0
 40
62.0
 40
63.0
 40
63.0
 40
63.0
 40
64.0
 40
64.0
 40
64.0
 40
65.0
 40
65.0
 40
65.0
 40
66.0
 40
66.0
 40
66.0
 40
67.0
 40
67.0
 40
67.0
 40
68.0
 40
68.0
 40
68.0
 40
69.0
 40
69.0
 40
69.0
 40
70.0
 40
70.0
 40
70.0
 40
71.0
 40
71.0
 40
71.0
 40
72.0
 40
72.0
 40
72.0
 40
73.0
 40
73.0
 40
73.0
 40
74.0
 40
74.0
 40
74.0
 40
75.0
 40
75.0
 40
75.0
 40
76.0
 40
76.0
 40
76.0
 40
77.0
 40
77.0
 40
77.0
 40
78.0
 40
78.0
 40
78.0
 40
79.0
 40
79.0
 40
79.0
 40
80.0
 40
80.0
 40
80.0
 40
81.0
 40
81.0
 40
81.0
 40
82.0
 40
82.0
 40
82.0
 40
83.0
 40
83.0
 40
83.0
 40
84.0
 40
84.0
 40
84.0
 40
85.0
 40
85.0
 40
85.0
 40
86.0
 40
86.0
 40
86.0
 40
87.0
 40
87.0
 40
87.0
 40
88.0
 40
88.0
 40
88.0
 40
89.0
 40
89.0
 40
89.0
 40
90.0
 40
90.0
 40
90.0
 40
91.0
 40
91.0
 40
91.0
 40
92.0
 40
92.0
 40
92.0
 40
93.0
 40
93.0
 40
93.0
 40
94.0
 40
94.0
 40
94.0
 40
95.0
 40
95.0
 40
95.0
 40
96.0
 40
96.0
 40
96.0
 40
97.0
 40
97.0
 40
97.0
 40
98.0
 40
98.0
 40
98.0
 40
99.0
 40
99.0
 40
99.0
 40
100.0
 40
100.0
 40
100.0
 40
101.0
 40
101.0
 40
101.0
 40
102.0
 40
102.0
 40
102.0
 40
103.0
 40
103.0
 40
103.0
 40
104.0
 40
104.0
 40
104.0
 40
105.0
 40
105.0
 40
105.0
 40
106.0
 40
106.0
 40
106.0
 40
107.0
 40
107.0
 40
107.0
 40
108.0
 40
108.0
 40
108.0
 40
109.0
 40
109.0
 40
109.0
 40
110.0
 40
110.0
 40
110.0
 40
111.0
 40
111.0
 40
111.0
 40
112.0
 40
112.0
 40
112.0
 40
113.0
 40
113.0
 40
113.0
 40
114.0
 40
114.0
 40
114.0
 40
115.0
 40
115.0
 40
115.0
 40
116.0
 40
116.0
 40
116.0
 40
117.0
 40
117.0
 40
117.0
 40
118.0
 40
118.0
 40
118.0
 40
119.0
 40
119.0
 40
119.0
 40
120.0
 40
120.0
 40
120.0
 40
121.0
 40
121.0
 40
121.0
 40
122.0
 40
122.0
 40
122.0
 40
123.0
 40
123.0
 40
123.0
 40
124.0
 40
124.0
 40
124.0
 40
125.0
 40
125.0
 40
125.0
 40
126.0
 40
126.0
 40
126.0
 40
126.0
 10
538.9865777624335
 20
-66.65265083306058
 30
0.0
 10
538.9865777624335
 20
-66.65265083306058
 30
0.0
 10
538.0470996038374
 20
-61.58353399199576
 30
0.0
 10
538.0043803916386
 20
-58.81091931638819
 30
0.0
 10
537.96166117944
 20
-56.03830464078062
 30
0.0
 10
540.0114943454272
 20
-48.67337465381012
 30
0.0
 10
541.805012238222
 20
-39.74850440203457
 30
0.0
 10
543.5985301310169
 20
-30.82432316981062
 30
0.0
 10
547.7836348873888
 20
-11.50180337473089
 30
0.0
 10
549.5347780777606
 20
-3.790296553309449
 30
0.0
 10
551.2855767583568
 20
3.92155477788779
 30
0.0
 10
554.7875186293248
 20
18.73823121532942
 30
0.0
 10
556.9655094319082
 20
28.74555118265653
 30
0.0
 10
559.1435002344916
 20
38.75356016953523
 30
0.0
 10
561.2360526126776
 20
46.24837034198089
 30
0.0
 10
562.77325523228
 20
53.57023660697687
 30
0.0
 10
564.3108023616584
 20
60.89175836219705
 30
0.0
 10
568.2823110570365
 20
76.79157353474183
 30
0.0
 10
569.8198581864149
 20
84.19991175346264
 30
0.0
 10
571.3570608060173
 20
91.60824997218346
 30
0.0
 10
574.1331205793829
 20
101.3558095685603
 30
0.0
 10
576.2256729575688
 20
110.2806798203358
 30
0.0
 10
578.3182253357547
 20
119.2052055623356
 30
0.0
 10
581.3075366603381
 20
128.7794767414869
 30
0.0
 10
583.5279021653445
 20
138.2242122449389
 30
0.0
 10
585.7486121801265
 20
147.6689477483908
 30
0.0
 10
590.147312997492
 20
160.3191744607383
 30
0.0
 10
593.0942496196525
 20
170.7600599809049
 30
0.0
 10
596.040841732037
 20
181.2011177559593
 30
0.0
 10
600.3113849128064
 20
195.2379963158863
 30
0.0
 10
602.3612180787936
 20
202.1697052597931
 30
0.0
 10
604.4110512447808
 20
209.1014142037
 30
0.0
 10
608.0835254547679
 20
220.0623372304309
 30
0.0
 10
610.4323931061463
 20
227.4272672174014
 30
0.0
 10
612.7812607575245
 20
234.7923694592598
 30
0.0
 10
615.3860991723193
 20
242.2871796317054
 30
0.0
 10
617.6495283993002
 20
247.3128882410199
 30
0.0
 10
619.912957626281
 20
252.3382523405587
 30
0.0
 10
622.1336676410631
 20
255.327563665142
 30
0.0
 10
624.1407815948515
 20
257.3205527181228
 30
0.0
 10
626.14789554864
 20
259.3133695162158
 30
0.0
 10
628.8812361098069
 20
260.3098640427062
 30
0.0
 10
628.8812361098069
 20
260.3098640427062
 30
0.0
 10
628.8812361098069
 20
260.3098640427062
 30
0.0
 10
641.9488364155313
 20
259.0534368903776
 30
0.0
 10
650.788957262461
 20
257.8838262015496
 30
0.0
 10
659.628733599615
 20
256.7140432578337
 30
0.0
 10
677.7358229056857
 20
255.327563665142
 30
0.0
 10
688.3267424332116
 20
254.6344099962401
 30
0.0
 10
698.9176619607374
 20
253.9412563273382
 30
0.0
 10
711.7292915030454
 20
253.5512712611369
 30
0.0
 10
726.4198773625455
 20
253.0314060094605
 30
0.0
 10
741.1104632220458
 20
252.5115407577841
 30
0.0
 10
746.8758343199947
 20
252.7716456385102
 30
0.0
 10
755.5023591059307
 20
252.3382523405587
 30
0.0
 10
764.1288838918668
 20
251.905031297495
 30
0.0
 10
781.1679928929696
 20
251.9484395292453
 30
0.0
 10
793.7233071620851
 20
251.6885069034071
 30
0.0
 10
806.2789659409765
 20
251.4285742775689
 30
0.0
 10
816.6562894075087
 20
250.9519450027549
 30
0.0
 10
826.2219478422651
 20
250.8220648172797
 30
0.0
 10
835.7882952965731
 20
250.6920123769167
 30
0.0
 10
844.3293816581117
 20
250.258791333853
 30
0.0
 10
857.1406666906439
 20
250.1721471252402
 30
0.0
 10
869.9522962329518
 20
250.0855029166275
 30
0.0
 10
883.1907733874712
 20
249.9988587080148
 30
0.0
 10
894.2943234613817
 20
249.7389260821766
 30
0.0
 10
905.3978735352922
 20
249.4789934563383
 30
0.0
 10
912.1450974942602
 20
249.6522818735638
 30
0.0
 10
921.4975043777988
 20
249.6088736418135
 30
0.0
 10
930.8502557711132
 20
249.5656376649511
 30
0.0
 10
941.5689884254593
 20
249.9556227311523
 30
0.0
 10
953.3984205969724
 20
250.258791333853
 30
0.0
 10
965.2278527684855
 20
250.5619599365536
 30
0.0
 10
975.4770185984215
 20
251.0385892113676
 30
0.0
 10
987.092854708941
 20
251.2552858603434
 30
0.0
 10
998.7086908194603
 20
251.4718102544313
 30
0.0
 10
1004.772751893025
 20
251.1686416517307
 30
0.0
 10
1015.064981444935
 20
251.2118776285931
 30
0.0
 10
1025.35686648707
 20
251.2552858603434
 30
0.0
 10
1031.762681258224
 20
250.8653007941421
 30
0.0
 10
1035.776909165801
 20
250.7352483537791
 30
0.0
 10
1039.791137073378
 20
250.6053681683039
 30
0.0
 10
1045.513788959128
 20
250.6487764000542
 30
0.0
 10
1045.513788959128
 20
250.6487764000542
 30
0.0
 10
1045.513788959128
 20
250.6487764000542
 30
0.0
 10
1046.538705542122
 20
249.6955178504262
 30
0.0
 10
1047.008272366532
 20
248.2225663040097
 30
0.0
 10
1047.478183700718
 20
246.7496147575932
 30
0.0
 10
1047.734154464134
 20
242.8070448833818
 30
0.0
 10
1047.86231210073
 20
239.3846847706227
 30
0.0
 10
1047.990469737327
 20
235.9619801480878
 30
0.0
 10
1048.673977132506
 20
227.5573196577644
 30
0.0
 10
1048.332223434916
 20
217.0296176740972
 30
0.0
 10
1047.990469737327
 20
206.5020879453179
 30
0.0
 10
1047.776873676333
 20
196.7109478623028
 30
0.0
 10
1048.033188949525
 20
186.4431785044738
 30
0.0
 10
1048.289504222718
 20
176.1755814015327
 30
0.0
 10
1048.374942647115
 20
167.8141568880718
 30
0.0
 10
1048.802134769102
 20
157.6332039937434
 30
0.0
 10
1049.228982381314
 20
147.4519065896392
 30
0.0
 10
1049.827051352096
 20
130.7294020724932
 30
0.0
 10
1050.125741327711
 20
122.1945168869189
 30
0.0
 10
1050.424775813102
 20
113.6596317013446
 30
0.0
 10
1051.022844783884
 20
95.81058021734513
 30
0.0
 10
1051.278815547301
 20
88.40224199862432
 30
0.0
 10
1051.535130820493
 20
80.9939037799035
 30
0.0
 10
1052.602766615686
 20
57.12282141498696
 30
0.0
 10
1053.243554798667
 20
46.0316736930051
 30
0.0
 10
1053.883998471872
 20
34.94121499057484
 30
0.0
 10
1055.250668752455
 20
18.82470316905426
 30
0.0
 10
1055.933831637859
 20
12.0230466655105
 30
0.0
 10
1056.616994523263
 20
5.221045652190939
 30
0.0
 10
1057.85550716725
 20
-4.310161804985868
 30
0.0
 10
1059.393054296628
 20
-11.11181830852963
 30
0.0
 10
1060.930256916231
 20
-17.91347481207339
 30
0.0
 10
1061.699202735808
 20
-23.63233709028979
 30
0.0
 10
1061.656483523609
 20
-26.27507158042221
 30
0.0
 10
1061.61376431141
 20
-28.91780607055462
 30
0.0
 10
1060.118936394231
 20
-29.13450271953041
 30
0.0
 10
1058.794985325846
 20
-29.26438290500556
 30
0.0
 10
1057.471378767237
 20
-29.39460760025651
 30
0.0
 10
1054.908915054865
 20
-29.48107955398135
 30
0.0
 10
1052.474608979089
 20
-28.83098960705398
 30
0.0
 10
1050.040302903314
 20
-28.18124416990241
 30
0.0
 10
1044.401711402858
 20
-28.06996751232025
 30
0.0
 10
1041.029649717365
 20
-27.96489203070242
 30
0.0
 10
1039.641619830682
 20
-27.9214837989521
 30
0.0
 10
1037.848101937887
 20
-27.94284340505146
 30
0.0
 10
1033.791154818112
 20
-28.37623670300304
 30
0.0
 10
1029.734207698336
 20
-28.80963000095462
 30
0.0
 10
1025.847792917579
 20
-29.22097467325525
 30
0.0
 10
1022.409929864909
 20
-30.32581752423356
 30
0.0
 10
1018.972411322015
 20
-31.43066037521187
 30
0.0
 10
1015.876301966935
 20
-32.2106305076144
 30
0.0
 10
1012.438438914265
 20
-32.64367929579019
 30
0.0
 10
1009.000575861595
 20
-33.07672808396597
 30
0.0
 10
1005.883106900416
 20
-33.40194531231755
 30
0.0
 10
1000.481193615932
 20
-33.94351467986912
 30
0.0
 10
995.0785913118962
 20
-34.48508404742071
 30
0.0
 10
990.4239197311141
 20
-34.54985188527039
 30
0.0
 10
985.9397804893512
 20
-34.68007658052134
 30
0.0
 10
981.455985757364
 20
-34.8096122562207
 30
0.0
 10
975.9893046350304
 20
-35.39458985552259
 30
0.0
 10
971.9964363335529
 20
-35.78457492172385
 30
0.0
 10
968.0035680320752
 20
-36.17455998792511
 30
0.0
 10
962.5799506317161
 20
-36.84600954095185
 30
0.0
 10
956.5586087703507
 20
-37.40928302437859
 30
0.0
 10
950.5372669089853
 20
-37.97255650780532
 30
0.0
 10
945.7327335757319
 20
-39.07739935878364
 30
0.0
 10
940.971263964453
 20
-39.59692010068426
 30
0.0
 10
936.2094498433984
 20
-40.11712986213647
 30
0.0
 10
929.9317927088406
 20
-40.61529099793773
 30
0.0
 10
925.3622150426802
 20
-41.005276064139
 30
0.0
 10
920.7929818862956
 20
-41.39526113034026
 30
0.0
 10
914.6648419944333
 20
-41.82830991851604
 30
0.0
 10
908.8781112903852
 20
-42.45635123979246
 30
0.0
 10
903.0917250961127
 20
-43.08473707084467
 30
0.0
 10
899.4189063763497
 20
-43.4960817431453
 30
0.0
 10
896.4082354456671
 20
-43.60460232252109
 30
0.0
 10
893.3975645149843
 20
-43.71277839212109
 30
0.0
 10
885.7532370998431
 20
-44.64433282587393
 30
0.0
 10
880.5859349726763
 20
-44.94750142857455
 30
0.0
 10
875.4186328455096
 20
-45.25101454105098
 30
0.0
 10
871.2548876952371
 20
-45.5107749120013
 30
0.0
 10
865.6603934460832
 20
-45.8790558623274
 30
0.0
 10
860.0658991969292
 20
-46.2473368126535
 30
0.0
 10
855.283069979551
 20
-46.78890618020508
 30
0.0
 10
851.3756401024708
 20
-47.33047554775666
 30
0.0
 10
847.4678657156148
 20
-47.87204491530824
 30
0.0
 10
840.5711245139513
 20
-48.7381424916598
 30
0.0
 10
836.0656256660891
 20
-49.08471932611075
 30
0.0
 10
831.5604713280026
 20
-49.43129616056169
 30
0.0
 10
823.2967153359798
 20
-50.10309022336423
 30
0.0
 10
818.1294132088132
 20
-50.44966705781517
 30
0.0
 10
812.9621110816464
 20
-50.79624389226611
 30
0.0
 10
805.3605028787039
 20
-51.29440502806737
 30
0.0
 10
800.3213583881334
 20
-51.597573630768
 30
0.0
 10
795.2822138975628
 20
-51.90074223346863
 30
0.0
 10
789.1327143996011
 20
-52.89740901484695
 30
0.0
 10
785.1825653103223
 20
-53.24398584929789
 30
0.0
 10
781.2320717112676
 20
-53.59056268374884
 30
0.0
 10
773.8654191754182
 20
-54.13213205130042
 30
0.0
 10
768.7835554726489
 20
-54.58722946512716
 30
0.0
 10
763.7016917698796
 20
-55.0419823691781
 30
0.0
 10
755.0965265900429
 20
-55.58355173672967
 30
0.0
 10
750.4628701055844
 20
-55.79990387592967
 30
0.0
 10
745.8295581309018
 20
-56.01694503468126
 30
0.0
 10
739.1033492682574
 20
-56.73145830968252
 30
0.0
 10
733.9360471410906
 20
-57.09973926000862
 30
0.0
 10
728.7687450139239
 20
-57.46802021033472
 30
0.0
 10
717.2169877217025
 20
-59.15749615083914
 30
0.0
 10
710.1276655553689
 20
-59.20090438258945
 30
0.0
 10
703.0386878988112
 20
-59.24431261433977
 30
0.0
 10
695.3516412714713
 20
-59.8075860977665
 30
0.0
 10
690.5901716601925
 20
-60.19722665419197
 30
0.0
 10
685.8287020489136
 20
-60.58721172039323
 30
0.0
 10
678.1416554215737
 20
-61.8219347568467
 30
0.0
 10
672.3122055053267
 20
-61.90875122034734
 30
0.0
 10
666.4831000988555
 20
-61.99556768384797
 30
0.0
 10
661.2303595472913
 20
-61.73546280312186
 30
0.0
 10
656.9170971543233
 20
-62.53679254162375
 30
0.0
 10
652.6038347613553
 20
-63.33846678990144
 30
0.0
 10
645.9206896206854
 20
-64.11843692230397
 30
0.0
 10
639.6640475824512
 20
-64.22661299190396
 30
0.0
 10
633.4077500539927
 20
-64.33478906150395
 30
0.0
 10
630.1834830623164
 20
-64.5731898263549
 30
0.0
 10
624.6106929290376
 20
-64.91976666080585
 30
0.0
 10
619.037558285983
 20
-65.2663434952568
 30
0.0
 10
611.884501811127
 20
-66.08937734963385
 30
0.0
 10
605.3932486155757
 20
-66.28436988273448
 30
0.0
 10
598.9019954200243
 20
-66.47936241583511
 30
0.0
 10
590.2541110279889
 20
-66.89105159791153
 30
0.0
 10
583.6133405897418
 20
-66.99922766751153
 30
0.0
 10
576.9729146612707
 20
-67.10740373711153
 30
0.0
 10
569.3285872461295
 20
-67.172516084737
 30
0.0
 10
562.3464076200686
 20
-67.19422020061216
 30
0.0
 10
555.3638834842318
 20
-67.21557980671152
 30
0.0
 10
546.3745899043824
 20
-67.02093178338669
 30
0.0
 10
543.1076037005073
 20
-67.04263589926185
 30
0.0
 10
539.8406174966323
 20
-67.0639955053612
 30
0.0
 10
538.4739472160488
 20
-66.52242613780963
 30
0.0
 10
536.6163505049559
 20
-66.39289046211027
 30
0.0
 10
534.758753793863
 20
-66.26266576685931
 30
0.0
 10
531.7904575656032
 20
-65.80929090191157
 30
0.0
 10
527.1144263787218
 20
-65.24463937938164
 30
0.0
 10
523.527390593132
 20
-64.81159059120586
 30
0.0
 10
515.0076638376928
 20
-63.74981146220206
 30
0.0
 10
510.2244901105388
 20
-63.01324956154986
 30
0.0
 10
505.4416608931606
 20
-62.27703217067344
 30
0.0
 10
499.7403686135098
 20
-61.19389343557029
 30
0.0
 10
495.1280717351507
 20
-59.5474812170404
 30
0.0
 10
490.5161193665674
 20
-57.9014135082863
 30
0.0
 10
486.3523742162949
 20
-55.97353680293094
 30
0.0
 10
482.9572303758237
 20
-52.78888843547116
 30
0.0
 10
479.5620865353524
 20
-49.60492908756297
 30
0.0
 10
478.0458990120734
 20
-45.70576744510193
 30
0.0
 10
476.6795732412658
 20
-41.76319757089057
 30
0.0
 10
475.3129029606824
 20
-37.82062769667921
 30
0.0
 10
473.7116215227819
 20
-32.73015124951502
 30
0.0
 10
472.2167936056023
 20
-27.14151366654957
 30
0.0
 10
470.7223101981985
 20
-21.55287608358412
 30
0.0
 10
468.9925266139259
 20
-15.46607736481741
 30
0.0
 10
467.5190583028457
 20
-9.83403155010164
 30
0.0
 10
466.0459345015413
 20
-4.201985735385872
 30
0.0
 10
463.2061404196535
 20
6.173959692043142
 30
0.0
 10
461.9462681695669
 20
11.63306159930923
 30
0.0
 10
460.6863959194803
 20
17.09147448702373
 30
0.0
 10
457.8466018375925
 20
28.31250239448075
 30
0.0
 10
456.9494983814192
 20
32.31984010654178
 30
0.0
 10
456.0527394350218
 20
36.32752232837861
 30
0.0
 10
454.2378619361276
 20
44.0173250339249
 30
0.0
 10
452.8284724433455
 20
49.93083533546614
 30
0.0
 10
451.4194274603391
 20
55.84469014678317
 30
0.0
 10
449.2627962638551
 20
64.4660472860823
 30
0.0
 10
448.088362438166
 20
69.47005177952165
 30
0.0
 10
446.9139286124769
 20
74.47371176318521
 30
0.0
 10
444.7145782037941
 20
83.76651845551106
 30
0.0
 10
443.3906271354094
 20
89.03028331990073
 30
0.0
 10
442.0670205768005
 20
94.29404818429039
 30
0.0
 10
440.5294734474223
 20
100.3377831810826
 30
0.0
 10
439.3123204095344
 20
105.5367802076226
 30
0.0
 10
438.0951673716465
 20
110.7354327243868
 30
0.0
 10
436.4298071154478
 20
116.2158942377522
 30
0.0
 10
435.3621713202555
 20
120.8950260126158
 30
0.0
 10
434.2945355250632
 20
125.5738132777036
 30
0.0
 10
432.479658026169
 20
132.0940052944218
 30
0.0
 10
431.3693030187779
 20
136.6212082581593
 30
0.0
 10
430.2589480113868
 20
141.1487557316725
 30
0.0
 10
428.2945532697971
 20
149.7050005233462
 30
0.0
 10
427.3974498136239
 20
153.1707688678557
 30
0.0
 10
426.5006908672265
 20
156.636709467253
 30
0.0
 10
425.0916458842202
 20
162.2255193051064
 30
0.0
 10
424.0240100890278
 20
166.5794338516183
 30
0.0
 10
422.9563742938355
 20
170.9335206530182
 30
0.0
 10
421.8246596803451
 20
175.4174876398933
 30
0.0
 10
420.7356642790534
 20
179.6415220009301
 30
0.0
 10
419.6466688777617
 20
183.8655563619669
 30
0.0
 10
418.4935946581719
 20
188.4144634415795
 30
0.0
 10
417.3618800446815
 20
193.1583630542928
 30
0.0
 10
416.2301654311911
 20
197.902262667006
 30
0.0
 10
414.4580071444956
 20
204.8124397499256
 30
0.0
 10
413.4544501676014
 20
209.4479910381509
 30
0.0
 10
412.4508931907071
 20
214.0837145812642
 30
0.0
 10
410.6356711820371
 20
220.9070752006831
 30
0.0
 10
409.5893949929441
 20
225.1745177934702
 30
0.0
 10
408.5431188038511
 20
229.4417881313695
 30
0.0
 10
407.0913546086461
 20
234.9222496447349
 30
0.0
 10
406.1732360561493
 20
238.9729955885463
 30
0.0
 10
405.2551175036525
 20
243.0237415323576
 30
0.0
 10
403.824368404771
 20
248.5908472543358
 30
0.0
 10
402.5644961546844
 20
253.5512712611369
 30
0.0
 10
401.3046239045979
 20
258.511867522826
 30
0.0
 10
400.2369881094055
 20
262.7141977679877
 30
0.0
 10
399.3188695569087
 20
266.4617751090984
 30
0.0
 10
398.400751004412
 20
270.2093524502091
 30
0.0
 10
396.5217946872197
 20
277.6392225299172
 30
0.0
 10
395.2405628310337
 20
282.6430547684686
 30
0.0
 10
393.9593309748477
 20
287.647059261908
 30
0.0
 10
392.4434879613446
 20
294.5353599740645
 30
0.0
 10
390.9059408319663
 20
300.3406942060057
 30
0.0
 10
389.3687382123638
 20
306.1462006928349
 30
0.0
 10
388.6425116049855
 20
308.6371786267291
 30
0.0
 10
387.3399201427001
 20
313.8360033983811
 30
0.0
 10
386.0376731901906
 20
319.0348281700332
 30
0.0
 10
384.5855644852098
 20
324.082068640335
 30
0.0
 10
384.0091996303028
 20
328.1545187000215
 30
0.0
 10
383.43249026562
 20
332.2267965048201
 30
0.0
 10
382.4289332887258
 20
339.1585054487269
 30
0.0
 10
382.151258409434
 20
342.7327943726122
 30
0.0
 10
381.8739280399182
 20
346.3070832964975
 30
0.0
 10
381.510814736229
 20
348.6897129059038
 30
0.0
 10
381.6816915850239
 20
353.3471405648922
 30
0.0
 10
381.8525684338188
 20
358.0042237141048
 30
0.0
 10
382.151258409434
 20
361.9033853565658
 30
0.0
 10
382.8347658046137
 20
365.109393330125
 30
0.0
 10
383.5179286900175
 20
368.3154013036841
 30
0.0
 10
384.6496433035078
 20
371.4128886978675
 30
0.0
 10
386.400441984104
 20
374.5754884396763
 30
0.0
 10
388.1515851744759
 20
377.7380881814851
 30
0.0
 10
390.4790932197548
 20
381.3340812212455
 30
0.0
 10
393.1693700589471
 20
384.3666285226913
 30
0.0
 10
395.8596468981394
 20
387.399348079025
 30
0.0
 10
400.2156285033062
 20
391.9699592745127
 30
0.0
 10
403.6748511620755
 20
394.0495925361063
 30
0.0
 10
407.1340738208448
 20
396.129053542812
 30
0.0
 10
412.4936124029059
 20
398.0352261322922
 30
0.0
 10
415.2052488481975
 20
399.5298817945839
 30
0.0
 10
417.9172298032649
 20
401.0245374568756
 30
0.0
 10
422.3155861108546
 20
402.4325489105545
 30
0.0
 10
425.3476166476367
 20
403.320695112557
 30
0.0
 10
428.3799916941946
 20
404.2088413145595
 30
0.0
 10
434.2304567067651
 20
406.1150139040398
 30
0.0
 10
439.0136304339191
 20
406.613175039841
 30
0.0
 10
443.7964596512973
 20
407.1115084305302
 30
0.0
 10
449.6259095675443
 20
407.3065009636308
 30
0.0
 10
453.4692606263263
 20
406.6782873874665
 30
0.0
 10
457.3126116851084
 20
406.0500738113022
 30
0.0
 10
461.3909184109834
 20
405.0969875165621
 30
0.0
 10
467.4553239943234
 20
402.7141856522679
 30
0.0
 10
473.5193850678876
 20
400.3313837879737
 30
0.0
 10
480.9073972098364
 20
395.7607725924859
 30
0.0
 10
486.0960589431025
 20
392.0566034831255
 30
0.0
 10
491.2847206763686
 20
388.3524343737651
 30
0.0
 10
498.6513732122181
 20
383.4135422279512
 30
0.0
 10
504.3953847040676
 20
379.3627962841398
 30
0.0
 10
510.1390516861413
 20
375.3120503403285
 30
0.0
 10
516.9293393670838
 20
370.5247424958649
 30
0.0
 10
519.5982566001768
 20
368.1853488633211
 30
0.0
 10
522.2675183430455
 20
365.8459552307772
 30
0.0
 10
524.4241495395295
 20
363.5715016909709
 30
0.0
 10
529.1428999386096
 20
359.5207557471595
 30
0.0
 10
533.8619948474656
 20
355.4700098033481
 30
0.0
 10
538.7089028831418
 20
350.9858705615852
 30
0.0
 10
542.2962831785073
 20
347.5850423098133
 30
0.0
 10
545.883318964097
 20
344.1842140580414
 30
0.0
 10
550.7732907217479
 20
339.2019136804773
 30
0.0
 10
554.5312033561324
 20
335.7793813128303
 30
0.0
 10
558.2891159905171
 20
332.3568489451832
 30
0.0
 10
565.4425169751487
 20
324.9702148423376
 30
0.0
 10
569.1790700034339
 20
321.482570127065
 30
0.0
 10
572.915967541495
 20
317.9950976666804
 30
0.0
 10
579.4709550455688
 20
311.3448532095991
 30
0.0
 10
582.6742069409215
 20
308.2906017922782
 30
0.0
 10
585.8767698167227
 20
305.2363503749572
 30
0.0
 10
590.1686726035914
 20
300.9906118980452
 30
0.0
 10
593.9696489599505
 20
297.2864427886848
 30
0.0
 10
597.7702808065338
 20
293.5822736793244
 30
0.0
 10
603.7916226678993
 20
287.0620816626061
 30
0.0
 10
608.3612003340596
 20
282.8597514174444
 30
0.0
 10
612.93077800022
 20
278.6574211722827
 30
0.0
 10
619.9770364445791
 20
271.8555924138511
 30
0.0
 10
624.5893333229382
 20
268.1080150727404
 30
0.0
 10
629.2012856915215
 20
264.3606099865175
 30
0.0
 10
628.5608420183164
 20
265.0320595395443
 30
0.0
 10
630.3757195172107
 20
263.2774712514144
 30
0.0
 10
632.1905970161049
 20
261.5228829632845
 30
0.0
 10
633.0663408661787
 20
259.9415830923801
 30
0.0
 10
633.0663408661787
 20
259.9415830923801
 30
0.0
  0
SPLINE
  5
12B
330
1F
100
AcDbEntity
  8
\U+30EC\U+30A4\U+30E4\U+30FC 2
  6
AI-Linetype-3
 62
   250
420
  2234132
370
    18
100
AcDbSpline
210
0.0
220
0.0
230
1.0
 70
     8
 71
     3
 72
    62
 73
    58
 74
     0
 42
0.0000000001
 43
0.0000000001
 40
0.0
 40
0.0
 40
0.0
 40
0.0
 40
1.0
 40
1.0
 40
1.0
 40
2.0
 40
2.0
 40
2.0
 40
3.0
 40
3.0
 40
3.0
 40
4.0
 40
4.0
 40
4.0
 40
5.0
 40
5.0
 40
5.0
 40
6.0
 40
6.0
 40
6.0
 40
7.0
 40
7.0
 40
7.0
 40
8.0
 40
8.0
 40
8.0
 40
9.0
 40
9.0
 40
9.0
 40
10.0
 40
10.0
 40
10.0
 40
11.0
 40
11.0
 40
11.0
 40
12.0
 40
12.0
 40
12.0
 40
13.0
 40
13.0
 40
13.0
 40
14.0
 40
14.0
 40
14.0
 40
15.0
 40
15.0
 40
15.0
 40
16.0
 40
16.0
 40
16.0
 40
17.0
 40
17.0
 40
17.0
 40
18.0
 40
18.0
 40
18.0
 40
19.0
 40
19.0
 40
19.0
 40
19.0
 10
1046.438797707141
 20
249.5222294332008
 30
0.0
 10
1046.438797707141
 20
249.5222294332008
 30
0.0
 10
1038.865783815589
 20
248.2513328702887
 30
0.0
 10
1028.445741136858
 20
247.8470506483919
 30
0.0
 10
1018.025698458127
 20
247.4427684264951
 30
0.0
 10
1011.876198960166
 20
247.4427684264951
 30
0.0
 10
994.167707464691
 20
247.0961915920441
 30
0.0
 10
976.4588714594406
 20
246.7496147575932
 30
0.0
 10
956.4163262329469
 20
245.5944734793486
 30
0.0
 10
942.1808377872734
 20
245.1321413602302
 30
0.0
 10
927.9456938513757
 20
244.6701537508875
 30
0.0
 10
919.5758288484078
 20
244.0924108568773
 30
0.0
 10
902.6073443513433
 20
244.0924108568773
 30
0.0
 10
885.6392043640545
 20
244.0924108568773
 30
0.0
 10
864.9703403651635
 20
243.1103857409704
 30
0.0
 10
847.2615043599129
 20
243.1103857409704
 30
0.0
 10
829.5526683546625
 20
243.1103857409704
 30
0.0
 10
804.7269494010147
 20
242.7059312641857
 30
0.0
 10
787.0753020185465
 20
242.8215142939653
 30
0.0
 10
769.4239991458539
 20
242.9370973237449
 30
0.0
 10
751.8867290089499
 20
243.5148402177551
 30
0.0
 10
729.9073498229302
 20
244.0924108568773
 30
0.0
 10
707.9283151466863
 20
244.6701537508875
 30
0.0
 10
691.0738633854103
 20
245.0742637178964
 30
0.0
 10
672.5681762687433
 20
247.3848907841613
 30
0.0
 10
654.0624891520762
 20
249.6955178504262
 30
0.0
 10
634.7599509239927
 20
251.9484395292453
 30
0.0
 10
630.3753750074349
 20
253.1614584498236
 30
0.0
 10
625.9911436006528
 20
254.3744773704019
 30
0.0
 10
623.7704335858707
 20
255.9339008705433
 30
0.0
 10
621.7206004198835
 20
256.6851044366668
 30
0.0
 10
619.6707672538963
 20
257.4361357479025
 30
0.0
 10
613.2935467941334
 20
260.2664558109559
 30
0.0
 10
608.7952826515628
 20
263.5591079931278
 30
0.0
 10
604.2970185089922
 20
266.8517601752997
 30
0.0
 10
595.471367072646
 20
273.3790146424217
 30
0.0
 10
584.5386938475303
 20
283.2567989340495
 30
0.0
 10
573.6060206224148
 20
293.1344109707894
 30
0.0
 10
561.1361447776966
 20
304.1101479178795
 30
0.0
 10
549.8048737419848
 20
315.8362271566537
 30
0.0
 10
538.473602706273
 20
327.5623063954279
 30
0.0
 10
529.647606760151
 20
334.6095983691143
 30
0.0
 10
519.7970387408111
 20
345.0072479124185
 30
0.0
 10
509.9464707214713
 20
355.4048974557227
 30
0.0
 10
497.4197507637468
 20
366.5532338004867
 30
0.0
 10
489.2772622128044
 20
373.5429926416152
 30
0.0
 10
481.1347736618619
 20
380.5325792278558
 30
0.0
 10
472.365966338522
 20
388.3307302578899
 30
0.0
 10
462.857152016772
 20
394.0495925361063
 30
0.0
 10
453.3479931852461
 20
399.768110304547
 30
0.0
 10
448.0521889117074
 20
401.5586998642475
 30
0.0
 10
443.4402365431241
 20
402.4830195927087
 30
0.0
 10
438.827939664765
 20
403.4073393211698
 30
0.0
 10
432.8496615253741
 20
403.5804554835074
 30
0.0
 10
430.0594768512009
 20
403.349461678836
 30
0.0
 10
427.2692921770277
 20
403.1184678741647
 30
0.0
 10
422.4296188466431
 20
402.5408972350424
 30
0.0
 10
415.5966119535019
 20
399.768110304547
 30
0.0
  0
SPLINE
  5
12D
330
1F
100
AcDbEntity
  8
\U+30EC\U+30A4\U+30E4\U+30FC 2
 62
   250
420
  2234132
370
    18
100
AcDbSpline
210
0.0
220
0.0
230
1.0
 70
     8
 71
     3
 72
    53
 73
    49
 74
     0
 42
0.0000000001
 43
0.0000000001
 40
0.0
 40
0.0
 40
0.0
 40
0.0
 40
1.0
 40
1.0
 40
1.0
 40
2.0
 40
2.0
 40
2.0
 40
3.0
 40
3.0
 40
3.0
 40
4.0
 40
4.0
 40
4.0
 40
5.0
 40
5.0
 40
5.0
 40
6.0
 40
6.0
 40
6.0
 40
7.0
 40
7.0
 40
7.0
 40
8.0
 40
8.0
 40
8.0
 40
9.0
 40
9.0
 40
9.0
 40
10.0
 40
10.0
 40
10.0
 40
11.0
 40
11.0
 40
11.0
 40
12.0
 40
12.0
 40
12.0
 40
13.0
 40
13.0
 40
13.0
 40
14.0
 40
14.0
 40
14.0
 40
15.0
 40
15.0
 40
15.0
 40
16.0
 40
16.0
 40
16.0
 40
16.0
 10
388.1512406647001
 20
377.4709208503552
 30
0.0
 10
390.0873856046746
 20
380.0127139761793
 30
0.0
 10
398.6853160792196
 20
389.601626820802
 30
0.0
 10
402.2155077518029
 20
391.6810878275077
 30
0.0
 10
405.7456994243863
 20
393.7605488342134
 30
0.0
 10
417.9313547040725
 20
401.1544176423507
 30
0.0
 10
432.6787846765791
 20
400.0568094966641
 30
0.0
 10
447.4262146490858
 20
398.9595458607533
 30
0.0
 10
459.725213645009
 20
391.565677052616
 30
0.0
 10
476.0101907468939
 20
378.7419896681552
 30
0.0
 10
492.2951678487788
 20
365.9181300288064
 30
0.0
 10
504.8790764292854
 20
354.1918785351444
 30
0.0
 10
511.8826156614458
 20
347.2599973363497
 30
0.0
 10
518.8861548936061
 20
340.3282883924429
 30
0.0
 10
537.6195629720744
 20
321.4968672827605
 30
0.0
 10
548.7227685362091
 20
310.8105185473392
 30
0.0
 10
559.8263186101196
 20
300.1241698119179
 30
0.0
 10
578.6162262918184
 20
283.430087351275
 30
0.0
 10
588.296606481915
 20
275.1118988146765
 30
0.0
 10
597.9766421622357
 20
266.7938825329659
 30
0.0
 10
613.5212677559347
 20
256.0496561552108
 30
0.0
 10
620.9802489116976
 20
252.2950163636962
 30
0.0
 10
628.4395745772362
 20
248.5402043172938
 30
0.0
 10
638.4041753323646
 20
248.0782167079511
 30
0.0
 10
652.6961633812687
 20
246.0564610886913
 30
0.0
 10
666.9881514301727
 20
244.0345332145436
 30
0.0
 10
689.9349140666282
 20
241.89753907528
 30
0.0
 10
702.1202248365386
 20
241.3197961812698
 30
0.0
 10
714.3055356064491
 20
240.7420532872596
 30
0.0
 10
733.3800083629556
 20
240.2797211681412
 30
0.0
 10
745.964261453238
 20
239.7023227839068
 30
0.0
 10
758.5485145435205
 20
239.1245798898966
 30
0.0
 10
776.4843824910206
 20
238.4891316084406
 30
0.0
 10
792.313917669303
 20
238.8357084428915
 30
0.0
 10
808.1434528475853
 20
239.1824575322304
 30
0.0
 10
835.8162005884126
 20
239.4132790820138
 30
0.0
 10
846.8057179265346
 20
239.5290343666813
 30
0.0
 10
857.7952352646566
 20
239.644445141573
 30
0.0
 10
896.4578448533816
 20
240.1064327509157
 30
0.0
 10
908.3585905484845
 20
240.2797211681412
 30
0.0
 10
920.2586472240358
 20
240.4531818402545
 30
0.0
 10
952.0885944293954
 20
241.8971945655042
 30
0.0
 10
965.0139121977161
 20
242.1283606250634
 30
0.0
 10
977.9392299660367
 20
242.3595266846226
 30
0.0
 10
997.4698336656974
 20
243.3415518005296
 30
0.0
 10
1010.680061018601
 20
243.5725456052009
 30
0.0
 10
1023.890632881281
 20
243.8035394098723
 30
0.0
 10
1046.894239630743
 20
245.5944734793486
 30
0.0
 10
1047.520558403141
 20
244.9588529430047
 30
0.0
  0
SPLINE
  5
12E
330
1F
100
AcDbEntity
  8
\U+30EC\U+30A4\U+30E4\U+30FC 2
  6
AI-Linetype-4
 62
   250
420
  2234132
370
    18
100
AcDbSpline
210
0.0
220
0.0
230
1.0
 70
     8
 71
     3
 72
    59
 73
    55
 74
     0
 42
0.0000000001
 43
0.0000000001
 40
0.0
 40
0.0
 40
0.0
 40
0.0
 40
1.0
 40
1.0
 40
1.0
 40
2.0
 40
2.0
 40
2.0
 40
3.0
 40
3.0
 40
3.0
 40
4.0
 40
4.0
 40
4.0
 40
5.0
 40
5.0
 40
5.0
 40
6.0
 40
6.0
 40
6.0
 40
7.0
 40
7.0
 40
7.0
 40
8.0
 40
8.0
 40
8.0
 40
9.0
 40
9.0
 40
9.0
 40
10.0
 40
10.0
 40
10.0
 40
11.0
 40
11.0
 40
11.0
 40
12.0
 40
12.0
 40
12.0
 40
13.0
 40
13.0
 40
13.0
 40
14.0
 40
14.0
 40
14.0
 40
15.0
 40
15.0
 40
15.0
 40
16.0
 40
16.0
 40
16.0
 40
17.0
 40
17.0
 40
17.0
 40
18.0
 40
18.0
 40
18.0
 40
18.0
 10
1047.805123477948
 20
238.8935860852253
 30
0.0
 10
1047.805123477948
 20
238.8935860852253
 30
0.0
 10
1046.153543612781
 20
239.1824575322304
 30
0.0
 10
1039.093160267615
 20
239.1824575322304
 30
0.0
 10
1032.032776922448
 20
239.1824575322304
 30
0.0
 10
1015.292357896961
 20
239.0091691150049
 30
0.0
 10
1002.138974657063
 20
238.4314262209947
 30
0.0
 10
988.9859359269409
 20
237.8536833269845
 30
0.0
 10
966.7226806856651
 20
237.7384448069807
 30
0.0
 10
950.4373590740043
 20
236.4675482440686
 30
0.0
 10
934.1523819721194
 20
235.1966516811566
 30
0.0
 10
922.8211109364076
 20
235.4276454858279
 30
0.0
 10
910.2375468656768
 20
235.0231910090432
 30
0.0
 10
897.6536382851701
 20
234.6190810420343
 30
0.0
 10
885.4679830054839
 20
235.081068651377
 30
0.0
 10
867.9303683588041
 20
234.8499025918177
 30
0.0
 10
850.3930982219001
 20
234.6190810420343
 30
0.0
 10
836.5565520965986
 20
233.5214728963477
 30
0.0
 10
816.6273505863418
 20
233.8680497307986
 30
0.0
 10
796.6984935858609
 20
234.2146265652496
 30
0.0
 10
781.0970238791556
 20
233.3480122242343
 30
0.0
 10
765.6088978886871
 20
234.0413381480241
 30
0.0
 10
750.1211164079946
 20
234.734491816926
 30
0.0
 10
736.2277261696867
 20
234.5612033997005
 30
0.0
 10
717.5511622042249
 20
235.4855231281617
 30
0.0
 10
698.8745982387629
 20
236.4096706017349
 30
0.0
 10
677.5794154674743
 20
237.7959779395387
 30
0.0
 10
666.1909558089803
 20
239.4711567243475
 30
0.0
 10
654.8028406602622
 20
241.1465077640443
 30
0.0
 10
637.7778565599672
 20
243.4567903205334
 30
0.0
 10
627.9841326536337
 20
245.9408780589117
 30
0.0
 10
618.1900642375243
 20
248.4247935424021
 30
0.0
 10
611.5282787029538
 20
251.6016904399064
 30
0.0
 10
603.4426342650178
 20
256.9160982413381
 30
0.0
 10
595.3569898270816
 20
262.2305060427698
 30
0.0
 10
586.0190523541265
 20
269.2199203741225
 30
0.0
 10
575.4281328266007
 20
279.0399992783044
 30
0.0
 10
564.8372132990748
 20
288.8600781824863
 30
0.0
 10
553.5631308861452
 20
299.3152608583484
 30
0.0
 10
541.0932550414271
 20
311.3303837990156
 30
0.0
 10
528.6230346869332
 20
323.3455067396828
 30
0.0
 10
513.0215649802279
 20
338.0176613261779
 30
0.0
 10
503.7401271105033
 20
348.0110286475853
 30
0.0
 10
494.4590337505545
 20
358.0042237141048
 30
0.0
 10
485.0639076548172
 20
364.0694905718842
 30
0.0
 10
473.7326366191054
 20
373.311826582056
 30
0.0
 10
462.4013655833936
 20
382.5543348471156
 30
0.0
 10
450.3865871525022
 20
390.6988904567128
 30
0.0
 10
440.9349614535344
 20
393.2406835825369
 30
0.0
 10
431.4829912447906
 20
395.7824767083611
 30
0.0
 10
418.6141730797005
 20
395.3780222315764
 30
0.0
 10
413.0909923541364
 20
393.7605488342134
 30
0.0
 10
407.568156138348
 20
392.1432476917382
 30
0.0
 10
395.7810986692579
 20
385.6159932246161
 30
0.0
 10
393.617577277258
 20
383.6519429928022
 30
0.0
  0
SPLINE
  5
130
330
1F
100
AcDbEntity
  8
\U+30EC\U+30A4\U+30E4\U+30FC 2
 62
   250
420
  2234132
370
    18
100
AcDbSpline
210
0.0
220
0.0
230
1.0
 70
     8
 71
     3
 72
    11
 73
     7
 74
     0
 42
0.0000000001
 43
0.0000000001
 40
0.0
 40
0.0
 40
0.0
 40
0.0
 40
1.0
 40
1.0
 40
1.0
 40
2.0
 40
2.0
 40
2.0
 40
2.0
 10
501.0639751721187
 20
357.5422361047621
 30
0.0
 10
501.0639751721187
 20
357.5422361047621
 30
0.0
 10
501.4625729827148
 20
359.1016596049035
 30
0.0
 10
504.1955690341059
 20
360.8924214194919
 30
0.0
 10
506.9289095952727
 20
362.6833554889683
 30
0.0
 10
516.6089452755934
 20
367.9395411382905
 30
0.0
 10
521.676684077555
 20
366.2645346083695
 30
0.0
  0
SPLINE
  5
131
330
1F
100
AcDbEntity
  8
\U+30EC\U+30A4\U+30E4\U+30FC 2
 62
   250
420
  2234132
370
    18
100
AcDbSpline
210
0.0
220
0.0
230
1.0
 70
     8
 71
     3
 72
    68
 73
    64
 74
     0
 42
0.0000000001
 43
0.0000000001
 40
0.0
 40
0.0
 40
0.0
 40
0.0
 40
1.0
 40
1.0
 40
1.0
 40
2.0
 40
2.0
 40
2.0
 40
3.0
 40
3.0
 40
3.0
 40
4.0
 40
4.0
 40
4.0
 40
5.0
 40
5.0
 40
5.0
 40
6.0
 40
6.0
 40
6.0
 40
7.0
 40
7.0
 40
7.0
 40
8.0
 40
8.0
 40
8.0
 40
9.0
 40
9.0
 40
9.0
 40
10.0
 40
10.0
 40
10.0
 40
11.0
 40
11.0
 40
11.0
 40
12.0
 40
12.0
 40
12.0
 40
13.0
 40
13.0
 40
13.0
 40
14.0
 40
14.0
 40
14.0
 40
15.0
 40
15.0
 40
15.0
 40
16.0
 40
16.0
 40
16.0
 40
17.0
 40
17.0
 40
17.0
 40
18.0
 40
18.0
 40
18.0
 40
19.0
 40
19.0
 40
19.0
 40
20.0
 40
20.0
 40
20.0
 40
21.0
 40
21.0
 40
21.0
 40
21.0
 10
1045.620586989625
 20
-28.13783593815209
 30
0.0
 10
1045.812478934743
 20
-28.31146886515336
 30
0.0
 10
1049.84806644842
 20
-29.32949525263104
 30
0.0
 10
1052.047416857102
 20
-30.02264892153293
 30
0.0
 10
1054.246767265785
 20
-30.71580259043482
 30
0.0
 10
1057.321861524542
 20
-30.82432316981062
 30
0.0
 10
1059.734463484442
 20
-30.56421828908451
 30
0.0
 10
1062.147409954119
 20
-30.3041134083584
 30
0.0
 10
1063.556799446901
 20
-30.02264892153293
 30
0.0
 10
1064.837686793311
 20
-28.6580456996043
 30
0.0
 10
1066.118918649497
 20
-27.29309796789989
 30
0.0
 10
1065.927026704378
 20
-27.85637145132662
 30
0.0
 10
1066.631549195881
 20
-23.17758418623885
 30
0.0
 10
1067.336071687385
 20
-18.49845241137529
 30
0.0
 10
1068.104672997186
 20
-11.761908255457
 30
0.0
 10
1068.446426694776
 20
-7.841042497120803
 30
0.0
 10
1068.788180392365
 20
-3.920176738784605
 30
0.0
 10
1069.10822997408
 20
3.423049132310734
 30
0.0
 10
1068.958712731385
 20
9.661776662203556
 30
0.0
 10
1068.809539998465
 20
15.90015968232058
 30
0.0
 10
1068.29690945208
 20
22.89715322874077
 30
0.0
 10
1068.019579082564
 20
28.76759980830749
 30
0.0
 10
1067.741904203272
 20
34.63770187809841
 30
0.0
 10
1066.610189589782
 20
48.21965527908657
 30
0.0
 10
1066.524751165385
 20
52.59527394147371
 30
0.0
 10
1066.439312740987
 20
56.97089260386085
 30
0.0
 10
1065.393036551894
 20
64.57422335568229
 30
0.0
 10
1065.200800097
 20
69.01495436569492
 30
0.0
 10
1065.008563642106
 20
73.45568537570753
 30
0.0
 10
1064.133164301808
 20
83.93980687273654
 30
0.0
 10
1063.706316689596
 20
88.85699490267525
 30
0.0
 10
1063.279124567609
 20
93.77452744238977
 30
0.0
 10
1062.510178748032
 20
99.64462951218069
 30
0.0
 10
1062.147409954119
 20
104.5184093103691
 30
0.0
 10
1061.784296650429
 20
109.3925336183333
 30
0.0
 10
1061.357449038218
 20
117.0823363238796
 30
0.0
 10
1060.908897310131
 20
122.7577903703457
 30
0.0
 10
1060.460345582045
 20
128.432899907036
 30
0.0
 10
1060.118936394231
 20
134.4335711818536
 30
0.0
 10
1059.841261514939
 20
139.5023435131426
 30
0.0
 10
1059.563931145423
 20
144.5711158444317
 30
0.0
 10
1058.794985325846
 20
153.1275328909932
 30
0.0
 10
1058.538670052654
 20
157.8931366195816
 30
0.0
 10
1058.282699289237
 20
162.6585680932821
 30
0.0
 10
1057.727349530654
 20
170.8034682126552
 30
0.0
 10
1057.450019161138
 20
175.0057984578168
 30
0.0
 10
1057.172344281846
 20
179.2083009578664
 30
0.0
 10
1056.147427698852
 20
187.418141169977
 30
0.0
 10
1055.869752819561
 20
192.4435052695157
 30
0.0
 10
1055.592077940269
 20
197.4690416239423
 30
0.0
 10
1055.101151509759
 20
204.7257955413128
 30
0.0
 10
1054.481722932878
 20
210.1845529388031
 30
0.0
 10
1053.862638865772
 20
215.6433103362934
 30
0.0
 10
1052.602766615686
 20
220.9287793165582
 30
0.0
 10
1052.495968585189
 20
224.3947199159556
 30
0.0
 10
1052.389170554692
 20
227.860488260465
 30
0.0
 10
1052.175574493698
 20
232.3661593632152
 30
0.0
 10
1052.1114956754
 20
236.5252536315145
 30
0.0
 10
1052.047416857102
 20
240.6843478998138
 30
0.0
 10
1052.261012918096
 20
242.3955279561933
 30
0.0
 10
1051.492411608295
 20
245.2332549794264
 30
0.0
 10
1050.723810298493
 20
248.0709820026594
 30
0.0
 10
1050.018943297214
 20
251.6885069034071
 30
0.0
 10
1045.620586989625
 20
250.5836640524288
 30
0.0
  0
SPLINE
  5
132
330
1F
100
AcDbEntity
  8
\U+30EC\U+30A4\U+30E4\U+30FC 2
 62
   250
420
  2234132
370
    18
100
AcDbSpline
210
0.0
220
0.0
230
1.0
 70
     8
 71
     3
 72
    26
 73
    22
 74
     0
 42
0.0000000001
 43
0.0000000001
 40
0.0
 40
0.0
 40
0.0
 40
0.0
 40
1.0
 40
1.0
 40
1.0
 40
2.0
 40
2.0
 40
2.0
 40
3.0
 40
3.0
 40
3.0
 40
4.0
 40
4.0
 40
4.0
 40
5.0
 40
5.0
 40
5.0
 40
6.0
 40
6.0
 40
6.0
 40
7.0
 40
7.0
 40
7.0
 40
7.0
 10
900.9564535057281
 20
-43.34449744179499
 30
0.0
 10
900.9564535057281
 20
-43.34449744179499
 30
0.0
 10
903.0558960794299
 20
-68.6022316542911
 30
0.0
 10
903.0558960794299
 20
-68.6022316542911
 30
0.0
 10
903.0558960794299
 20
-68.6022316542911
 30
0.0
 10
1028.996267758581
 20
-57.03049279507358
 30
0.0
 10
1037.466729616081
 20
-56.49443558393475
 30
0.0
 10
1045.937191473581
 20
-55.95837837279591
 30
0.0
 10
1054.873086038182
 20
-60.24442449347605
 30
0.0
 10
1058.968962762623
 20
-63.56618775170271
 30
0.0
 10
1063.064494977288
 20
-66.88760650015357
 30
0.0
 10
1066.880629763782
 20
-71.28113967088211
 30
0.0
 10
1073.582722942121
 20
-81.99573820791876
 30
0.0
 10
1080.284816120459
 20
-92.711025764507
 30
0.0
 10
1194.40367935294
 20
-284.1874920933629
 30
0.0
 10
1207.900538839307
 20
-306.3677204786718
 30
0.0
 10
1221.397742835449
 20
-328.5465708248776
 30
0.0
 10
1233.417344403202
 20
-341.2675942961511
 30
0.0
 10
1261.515906226913
 20
-344.7268169549204
 30
0.0
 10
1296.328963580892
 20
-349.012174056049
 30
0.0
 10
1319.949242829029
 20
-307.0171214060476
 30
0.0
 10
1319.949242829029
 20
-307.0171214060476
 30
0.0
  0
SPLINE
  5
133
330
1F
100
AcDbEntity
  8
\U+30EC\U+30A4\U+30E4\U+30FC 2
 62
   250
420
  2234132
370
    18
100
AcDbSpline
210
0.0
220
0.0
230
1.0
 70
    11
 71
     3
 72
    17
 73
    13
 74
     0
 42
0.0000000001
 43
0.0000000001
 40
0.0
 40
0.0
 40
0.0
 40
0.0
 40
1.0
 40
1.0
 40
1.0
 40
2.0
 40
2.0
 40
2.0
 40
3.0
 40
3.0
 40
3.0
 40
4.0
 40
4.0
 40
4.0
 40
4.0
 10
1321.638029749981
 20
-300.4283719439459
 30
0.0
 10
1321.638029749981
 20
-307.9097462351355
 30
0.0
 10
1315.660096120366
 20
-313.9744963282512
 30
0.0
 10
1308.285519859674
 20
-313.9744963282512
 30
0.0
 10
1300.910943598981
 20
-313.9744963282512
 30
0.0
 10
1294.933009969366
 20
-307.9097462351355
 30
0.0
 10
1294.933009969366
 20
-300.4283719439459
 30
0.0
 10
1294.933009969366
 20
-292.9476866723078
 30
0.0
 10
1300.910943598981
 20
-286.8822475596405
 30
0.0
 10
1308.285519859674
 20
-286.8822475596405
 30
0.0
 10
1315.660096120366
 20
-286.8822475596405
 30
0.0
 10
1321.638029749981
 20
-292.9476866723078
 30
0.0
 10
1321.638029749981
 20
-300.4283719439459
 30
0.0
  0
SPLINE
  5
134
330
1F
100
AcDbEntity
  8
\U+30EC\U+30A4\U+30E4\U+30FC 2
 62
   250
420
  2234132
370
    18
100
AcDbSpline
210
0.0
220
0.0
230
1.0
 70
     8
 71
     3
 72
    20
 73
    16
 74
     0
 42
0.0000000001
 43
0.0000000001
 40
0.0
 40
0.0
 40
0.0
 40
0.0
 40
1.0
 40
1.0
 40
1.0
 40
2.0
 40
2.0
 40
2.0
 40
3.0
 40
3.0
 40
3.0
 40
4.0
 40
4.0
 40
4.0
 40
5.0
 40
5.0
 40
5.0
 40
5.0
 10
1040.072946069979
 20
-28.20639338353553
 30
0.0
 10
1046.495986329923
 20
-27.67136970172408
 30
0.0
 10
1055.152483466353
 20
-30.02850558772147
 30
0.0
 10
1065.205278724085
 20
-36.7788301346716
 30
0.0
 10
1075.258418491593
 20
-43.52915468162173
 30
0.0
 10
1083.077412363063
 20
-52.95838724516287
 30
0.0
 10
1093.22322526026
 20
-69.03114632515734
 30
0.0
 10
1103.369038157457
 20
-85.1032163856002
 30
0.0
 10
1222.421625889115
 20
-281.6150375974929
 30
0.0
 10
1232.939509344172
 20
-298.8667091302618
 30
0.0
 10
1243.458081818781
 20
-316.1176916434792
 30
0.0
 10
1255.652005333086
 20
-320.7255098947529
 30
0.0
 10
1269.335244608159
 20
-318.5816255599734
 30
0.0
 10
1283.018483883231
 20
-316.4384302447454
 30
0.0
 10
1297.230201154375
 20
-292.8495013862059
 30
0.0
 10
1297.230201154375
 20
-292.8495013862059
 30
0.0
  0
POLYLINE
  5
135
330
1F
100
AcDbEntity
  8
\U+30EC\U+30A4\U+30E4\U+30FC 2
 62
   250
420
  2234132
370
    18
100
AcDb2dPolyline
 66
     1
 10
0.0
 20
0.0
 30
0.0
  0
VERTEX
  5
136
330
135
100
AcDbEntity
  8
\U+30EC\U+30A4\U+30E4\U+30FC 2
 62
   250
420
  2234132
370
    18
100
AcDbVertex
100
AcDb2dVertex
 10
915.7149077910601
 20
-67.63829330161342
 30
0.0
  0
VERTEX
  5
137
330
135
100
AcDbEntity
  8
\U+30EC\U+30A4\U+30E4\U+30FC 2
 62
   250
420
  2234132
370
    18
100
AcDbVertex
100
AcDb2dVertex
 10
915.993960709455
 20
-74.28147530829095
 30
0.0
  0
VERTEX
  5
138
330
135
100
AcDbEntity
  8
\U+30EC\U+30A4\U+30E4\U+30FC 2
 62
   250
420
  2234132
370
    18
100
AcDbVertex
100
AcDb2dVertex
 10
929.3047849168915
 20
-72.78079072492284
 30
0.0
  0
VERTEX
  5
139
330
135
100
AcDbEntity
  8
\U+30EC\U+30A4\U+30E4\U+30FC 2
 62
   250
420
  2234132
370
    18
100
AcDbVertex
100
AcDb2dVertex
 10
928.9330588688075
 20
-66.35223830856633
 30
0.0
  0
SEQEND
  5
13A
330
135
100
AcDbEntity
  8
\U+30EC\U+30A4\U+30E4\U+30FC 2
370
    18
  0
POLYLINE
  5
13B
330
1F
100
AcDbEntity
  8
\U+30EC\U+30A4\U+30E4\U+30FC 2
 62
   250
420
  2234132
370
    18
100
AcDb2dPolyline
 66
     1
 10
0.0
 20
0.0
 30
0.0
  0
VERTEX
  5
13C
330
13B
100
AcDbEntity
  8
\U+30EC\U+30A4\U+30E4\U+30FC 2
 62
   250
420
  2234132
370
    18
100
AcDbVertex
100
AcDb2dVertex
 10
999.5827121206553
 20
-59.92299687265822
 30
0.0
  0
VERTEX
  5
13D
330
13B
100
AcDbEntity
  8
\U+30EC\U+30A4\U+30E4\U+30FC 2
 62
   250
420
  2234132
370
    18
100
AcDbVertex
100
AcDb2dVertex
 10
999.8617650390502
 20
-66.56583436955995
 30
0.0
  0
VERTEX
  5
13E
330
13B
100
AcDbEntity
  8
\U+30EC\U+30A4\U+30E4\U+30FC 2
 62
   250
420
  2234132
370
    18
100
AcDbVertex
100
AcDb2dVertex
 10
1013.172244736711
 20
-65.06652782529503
 30
0.0
  0
VERTEX
  5
13F
330
13B
100
AcDbEntity
  8
\U+30EC\U+30A4\U+30E4\U+30FC 2
 62
   250
420
  2234132
370
    18
100
AcDbVertex
100
AcDb2dVertex
 10
1012.799829669075
 20
-58.63728638938692
 30
0.0
  0
SEQEND
  5
140
330
13B
100
AcDbEntity
  8
\U+30EC\U+30A4\U+30E4\U+30FC 2
370
    18
  0
SPLINE
  5
141
330
1F
100
AcDbEntity
  8
\U+30EC\U+30A4\U+30E4\U+30FC 2
 62
   250
420
  2234132
370
    18
100
AcDbSpline
210
0.0
220
0.0
230
1.0
 70
     8
 71
     3
 72
    20
 73
    16
 74
     0
 42
0.0000000001
 43
0.0000000001
 40
0.0
 40
0.0
 40
0.0
 40
0.0
 40
1.0
 40
1.0
 40
1.0
 40
2.0
 40
2.0
 40
2.0
 40
3.0
 40
3.0
 40
3.0
 40
4.0
 40
4.0
 40
4.0
 40
5.0
 40
5.0
 40
5.0
 40
5.0
 10
494.1090118183456
 20
-387.747475207467
 30
0.0
 10
494.1090118183456
 20
-387.747475207467
 30
0.0
 10
494.1090118183456
 20
-391.7716938985421
 30
0.0
 10
494.1090118183456
 20
-393.483907484249
 30
0.0
 10
494.1090118183456
 20
-395.196121069956
 30
0.0
 10
496.4027579055965
 20
-398.3638884584017
 30
0.0
 10
498.2558759896041
 20
-398.3638884584017
 30
0.0
 10
500.1083050540601
 20
-398.3638884584017
 30
0.0
 10
540.3387786324336
 20
-398.3638884584017
 30
0.0
 10
542.8974527372717
 20
-398.3638884584017
 30
0.0
 10
545.4561268421098
 20
-398.3638884584017
 30
0.0
 10
548.0144564371722
 20
-395.7955680798413
 30
0.0
 10
548.0144564371722
 20
-394.8536783528146
 30
0.0
 10
548.0144564371722
 20
-393.9121331355636
 30
0.0
 10
548.0144564371722
 20
-387.805008340025
 30
0.0
 10
548.0144564371722
 20
-387.805008340025
 30
0.0
  0
SPLINE
  5
142
330
1F
100
AcDbEntity
  8
\U+30EC\U+30A4\U+30E4\U+30FC 2
 62
   250
420
  2234132
370
    18
100
AcDbSpline
210
0.0
220
0.0
230
1.0
 70
     8
 71
     3
 72
    20
 73
    16
 74
     0
 42
0.0000000001
 43
0.0000000001
 40
0.0
 40
0.0
 40
0.0
 40
0.0
 40
1.0
 40
1.0
 40
1.0
 40
2.0
 40
2.0
 40
2.0
 40
3.0
 40
3.0
 40
3.0
 40
4.0
 40
4.0
 40
4.0
 40
5.0
 40
5.0
 40
5.0
 40
5.0
 10
1002.989224783728
 20
-387.747475207467
 30
0.0
 10
1002.989224783728
 20
-387.747475207467
 30
0.0
 10
1002.989224783728
 20
-391.7716938985421
 30
0.0
 10
1002.989224783728
 20
-393.483907484249
 30
0.0
 10
1002.989224783728
 20
-395.196121069956
 30
0.0
 10
1005.283315380754
 20
-398.3638884584017
 30
0.0
 10
1007.13574444521
 20
-398.3638884584017
 30
0.0
 10
1008.988518019442
 20
-398.3638884584017
 30
0.0
 10
1049.218991597816
 20
-398.3638884584017
 30
0.0
 10
1051.777665702654
 20
-398.3638884584017
 30
0.0
 10
1054.335995297716
 20
-398.3638884584017
 30
0.0
 10
1056.894324892779
 20
-395.7955680798413
 30
0.0
 10
1056.894324892779
 20
-394.8536783528146
 30
0.0
 10
1056.894324892779
 20
-393.9121331355636
 30
0.0
 10
1056.894324892779
 20
-387.4053770001014
 30
0.0
 10
1056.894324892779
 20
-387.4053770001014
 30
0.0
  0
SPLINE
  5
143
330
1F
100
AcDbEntity
  8
\U+30EC\U+30A4\U+30E4\U+30FC 2
 62
   250
420
  2234132
370
    18
100
AcDbSpline
210
0.0
220
0.0
230
1.0
 70
     8
 71
     3
 72
    20
 73
    16
 74
     0
 42
0.0000000001
 43
0.0000000001
 40
0.0
 40
0.0
 40
0.0
 40
0.0
 40
1.0
 40
1.0
 40
1.0
 40
2.0
 40
2.0
 40
2.0
 40
3.0
 40
3.0
 40
3.0
 40
4.0
 40
4.0
 40
4.0
 40
5.0
 40
5.0
 40
5.0
 40
5.0
 10
855.1245954826848
 20
-387.747475207467
 30
0.0
 10
855.1245954826848
 20
-387.747475207467
 30
0.0
 10
855.1245954826848
 20
-391.7716938985421
 30
0.0
 10
855.1245954826848
 20
-393.483907484249
 30
0.0
 10
855.1245954826848
 20
-395.196121069956
 30
0.0
 10
857.4186860797114
 20
-398.3638884584017
 30
0.0
 10
859.2711151441674
 20
-398.3638884584017
 30
0.0
 10
861.1238887183991
 20
-398.3638884584017
 30
0.0
 10
901.3543622967726
 20
-398.3638884584017
 30
0.0
 10
903.9130364016107
 20
-398.3638884584017
 30
0.0
 10
906.4717105064489
 20
-398.3638884584017
 30
0.0
 10
909.0300401015112
 20
-395.7955680798413
 30
0.0
 10
909.0300401015112
 20
-394.8536783528146
 30
0.0
 10
909.0300401015112
 20
-393.9121331355636
 30
0.0
 10
909.0300401015112
 20
-387.4053770001014
 30
0.0
 10
909.0300401015112
 20
-387.4053770001014
 30
0.0
  0
SPLINE
  5
144
330
1F
100
AcDbEntity
  8
\U+30EC\U+30A4\U+30E4\U+30FC 2
 62
   250
420
  2234132
370
    18
100
AcDbSpline
210
0.0
220
0.0
230
1.0
 70
     8
 71
     3
 72
    86
 73
    82
 74
     0
 42
0.0000000001
 43
0.0000000001
 40
0.0
 40
0.0
 40
0.0
 40
0.0
 40
1.0
 40
1.0
 40
1.0
 40
2.0
 40
2.0
 40
2.0
 40
3.0
 40
3.0
 40
3.0
 40
4.0
 40
4.0
 40
4.0
 40
5.0
 40
5.0
 40
5.0
 40
6.0
 40
6.0
 40
6.0
 40
7.0
 40
7.0
 40
7.0
 40
8.0
 40
8.0
 40
8.0
 40
9.0
 40
9.0
 40
9.0
 40
10.0
 40
10.0
 40
10.0
 40
11.0
 40
11.0
 40
11.0
 40
12.0
 40
12.0
 40
12.0
 40
13.0
 40
13.0
 40
13.0
 40
14.0
 40
14.0
 40
14.0
 40
15.0
 40
15.0
 40
15.0
 40
16.0
 40
16.0
 40
16.0
 40
17.0
 40
17.0
 40
17.0
 40
18.0
 40
18.0
 40
18.0
 40
19.0
 40
19.0
 40
19.0
 40
20.0
 40
20.0
 40
20.0
 40
21.0
 40
21.0
 40
21.0
 40
22.0
 40
22.0
 40
22.0
 40
23.0
 40
23.0
 40
23.0
 40
24.0
 40
24.0
 40
24.0
 40
25.0
 40
25.0
 40
25.0
 40
26.0
 40
26.0
 40
26.0
 40
27.0
 40
27.0
 40
27.0
 40
27.0
 10
889.179386820136
 20
-343.7425525254708
 30
0.0
 10
901.2957956348872
 20
-345.2263561298249
 30
0.0
 10
925.7043132500459
 20
-349.9072104535674
 30
0.0
 10
945.8195500392326
 20
-354.8157857391112
 30
0.0
 10
965.9347868284192
 20
-359.7236720051035
 30
0.0
 10
990.990293802523
 20
-366.8012808390599
 30
0.0
 10
994.284496278686
 20
-367.9429862360485
 30
0.0
 10
997.5780097352973
 20
-369.0840026134854
 30
0.0
 10
1000.048489337532
 20
-373.4220697103107
 30
0.0
 10
1000.048489337532
 20
-376.2759886930062
 30
0.0
 10
1000.048489337532
 20
-379.1295631659258
 30
0.0
 10
1000.048489337532
 20
-383.0108103000455
 30
0.0
 10
1000.048489337532
 20
-384.6089911499639
 30
0.0
 10
1000.048489337532
 20
-386.2064829803307
 30
0.0
 10
1000.989345535231
 20
-387.120467415518
 30
0.0
 10
1001.930546242706
 20
-387.120467415518
 30
0.0
 10
1002.871746950181
 20
-387.120467415518
 30
0.0
 10
1003.224524960597
 20
-387.120467415518
 30
0.0
 10
1005.577182219509
 20
-387.120467415518
 30
0.0
 10
1007.929150458869
 20
-387.120467415518
 30
0.0
 10
1051.10104850299
 20
-387.120467415518
 30
0.0
 10
1053.92430611564
 20
-387.120467415518
 30
0.0
 10
1056.747563728289
 20
-387.120467415518
 30
0.0
 10
1060.041077184901
 20
-387.4629101326594
 30
0.0
 10
1060.511677538638
 20
-386.5496147170238
 30
0.0
 10
1060.982277892376
 20
-385.6359747916123
 30
0.0
 10
1060.864800058829
 20
-380.2716130726902
 30
0.0
 10
1060.864800058829
 20
-378.7871204487844
 30
0.0
 10
1060.864800058829
 20
-377.3029723346546
 30
0.0
 10
1060.276377361769
 20
-375.4774150327107
 30
0.0
 10
1058.394320456595
 20
-374.1072996543693
 30
0.0
 10
1056.512608061196
 20
-372.7375287858038
 30
0.0
 10
1006.871160937399
 20
-347.8522096409433
 30
0.0
 10
972.0515578976803
 20
-336.3228454841487
 30
0.0
 10
937.2322993677373
 20
-324.7934813273541
 30
0.0
 10
894.1785681767142
 20
-314.7482652846894
 30
0.0
 10
869.7111393898945
 20
-311.7806580759812
 30
0.0
 10
845.243366093299
 20
-308.8123618477214
 30
0.0
 10
805.9540932224007
 20
-305.9587873748018
 30
0.0
 10
802.0718125589536
 20
-305.9587873748018
 30
0.0
 10
798.1902209150583
 20
-305.9587873748018
 30
0.0
 10
759.1362482210287
 20
-305.3879346763075
 30
0.0
 10
747.7260844466597
 20
-305.3879346763075
 30
0.0
 10
736.3155761625147
 20
-305.3879346763075
 30
0.0
 10
677.0285443359762
 20
-305.6163446576604
 30
0.0
 10
660.6777658669142
 20
-307.8994109418616
 30
0.0
 10
644.3266428880765
 20
-310.182132716287
 30
0.0
 10
602.2137678947528
 20
-318.7438896643734
 30
0.0
 10
569.6293442803996
 20
-330.5009747829693
 30
0.0
 10
537.0452651758221
 20
-342.2590934308924
 30
0.0
 10
487.9925852588605
 20
-371.4817906530267
 30
0.0
 10
485.9923615005879
 20
-372.6231515402394
 30
0.0
 10
483.9928267618669
 20
-373.7641679176763
 30
0.0
 10
480.8753578006874
 20
-375.7051359945119
 30
0.0
 10
480.8753578006874
 20
-377.0749068630775
 30
0.0
 10
480.8753578006874
 20
-378.4446777316431
 30
0.0
 10
480.8753578006874
 20
-381.0701867329857
 30
0.0
 10
480.8753578006874
 20
-383.6385071115461
 30
0.0
 10
480.8753578006874
 20
-386.2068274901065
 30
0.0
 10
481.7576473365013
 20
-387.6909756042364
 30
0.0
 10
485.0511607931127
 20
-387.6909756042364
 30
0.0
 10
488.3446742497241
 20
-387.6909756042364
 30
0.0
 10
548.3382956264205
 20
-387.6909756042364
 30
0.0
 10
548.6907291270601
 20
-387.6909756042364
 30
0.0
 10
549.6319298345352
 20
-387.6909756042364
 30
0.0
 10
549.9850523547262
 20
-386.0924502445422
 30
0.0
 10
549.9850523547262
 20
-384.9514338671053
 30
0.0
 10
549.9850523547262
 20
-383.8100729798926
 30
0.0
 10
551.3965089061631
 20
-368.3991171792026
 30
0.0
 10
551.3965089061631
 20
-368.3991171792026
 30
0.0
 10
551.3965089061631
 20
-368.3991171792026
 30
0.0
 10
585.9808117690131
 20
-353.6737358323469
 30
0.0
 10
609.3895620148112
 20
-348.3086850938732
 30
0.0
 10
632.7983122606094
 20
-342.9436343553995
 30
0.0
 10
649.5015242303108
 20
-341.0030107883396
 30
0.0
 10
666.9116702599459
 20
-339.1764199570683
 30
0.0
 10
684.3214717798054
 20
-337.3501736355728
 30
0.0
 10
700.2026834244572
 20
-336.2088127483602
 30
0.0
 10
701.4959731227959
 20
-336.3228454841487
 30
0.0
 10
702.7899518406864
 20
-336.4368782199372
 30
0.0
 10
706.7897103376799
 20
-338.7195999943626
 30
0.0
 10
707.8480443689257
 20
-340.5461908256339
 30
0.0
  0
SPLINE
  5
145
330
1F
100
AcDbEntity
  8
\U+30EC\U+30A4\U+30E4\U+30FC 2
 62
   250
420
  2234132
370
    18
100
AcDbSpline
210
0.0
220
0.0
230
1.0
 70
     8
 71
     3
 72
    23
 73
    19
 74
     0
 42
0.0000000001
 43
0.0000000001
 40
0.0
 40
0.0
 40
0.0
 40
0.0
 40
1.0
 40
1.0
 40
1.0
 40
2.0
 40
2.0
 40
2.0
 40
3.0
 40
3.0
 40
3.0
 40
4.0
 40
4.0
 40
4.0
 40
5.0
 40
5.0
 40
5.0
 40
6.0
 40
6.0
 40
6.0
 40
6.0
 10
1024.280962457258
 20
-387.2345001513065
 30
0.0
 10
1024.868696134767
 20
-387.2345001513065
 30
0.0
 10
1028.86845463176
 20
-386.2064829803307
 30
0.0
 10
1028.86845463176
 20
-384.0381384514696
 30
0.0
 10
1028.86845463176
 20
-381.869104903057
 30
0.0
 10
1028.985932465307
 20
-374.7918405788763
 30
0.0
 10
1028.515332111569
 20
-372.6231515402394
 30
0.0
 10
1028.045076267607
 20
-370.4541179918267
 30
0.0
 10
1026.98605321681
 20
-368.3991171792026
 30
0.0
 10
1023.692195250423
 20
-367.0296908204128
 30
0.0
 10
1020.398681793811
 20
-365.6595754420715
 30
0.0
 10
996.1668976936362
 20
-353.217260379417
 30
0.0
 10
966.6406873590256
 20
-344.085339752388
 30
0.0
 10
937.1148215341907
 20
-334.9527301058073
 30
0.0
 10
903.2360746921713
 20
-326.9625148757668
 30
0.0
 10
887.4733744103934
 20
-324.1089404028471
 30
0.0
 10
871.7110186383912
 20
-321.2546769103758
 30
0.0
 10
849.8312027775766
 20
-319.2003651173033
 30
0.0
 10
849.8312027775766
 20
-319.2003651173033
 30
0.0
  0
SPLINE
  5
146
330
1F
100
AcDbEntity
  8
\U+30EC\U+30A4\U+30E4\U+30FC 2
 62
   250
420
  2234132
370
    18
100
AcDbSpline
210
0.0
220
0.0
230
1.0
 70
     8
 71
     3
 72
    53
 73
    49
 74
     0
 42
0.0000000001
 43
0.0000000001
 40
0.0
 40
0.0
 40
0.0
 40
0.0
 40
1.0
 40
1.0
 40
1.0
 40
2.0
 40
2.0
 40
2.0
 40
3.0
 40
3.0
 40
3.0
 40
4.0
 40
4.0
 40
4.0
 40
5.0
 40
5.0
 40
5.0
 40
6.0
 40
6.0
 40
6.0
 40
7.0
 40
7.0
 40
7.0
 40
8.0
 40
8.0
 40
8.0
 40
9.0
 40
9.0
 40
9.0
 40
10.0
 40
10.0
 40
10.0
 40
11.0
 40
11.0
 40
11.0
 40
12.0
 40
12.0
 40
12.0
 40
13.0
 40
13.0
 40
13.0
 40
14.0
 40
14.0
 40
14.0
 40
15.0
 40
15.0
 40
15.0
 40
16.0
 40
16.0
 40
16.0
 40
16.0
 10
817.8348573505074
 20
-308.5839518663686
 30
0.0
 10
832.5392236010395
 20
-312.6932644720653
 30
0.0
 10
850.8895368088224
 20
-317.9442824747505
 30
0.0
 10
869.828617223441
 20
-330.1585320658278
 30
0.0
 10
888.7673531282837
 20
-342.3734706764568
 30
0.0
 10
891.2378327305181
 20
-345.6831760925306
 30
0.0
 10
898.2958045072542
 20
-351.5047022839343
 30
0.0
 10
905.3541207937661
 20
-357.3265729851137
 30
0.0
 10
916.7642845681353
 20
-368.7419044061198
 30
0.0
 10
919.1165973172715
 20
-371.253036161898
 30
0.0
 10
921.4695990859593
 20
-373.7641679176763
 30
0.0
 10
923.1167003240408
 20
-375.2483160318062
 30
0.0
 10
923.8226008546471
 20
-377.8738250331488
 30
0.0
 10
924.5281568754777
 20
-380.4996785442672
 30
0.0
 10
923.4694783344561
 20
-385.8643847729651
 30
0.0
 10
923.3516559911337
 20
-386.3208602258951
 30
0.0
 10
923.2341781575873
 20
-386.7776801886008
 30
0.0
 10
923.116355814265
 20
-387.1201229057422
 30
0.0
 10
920.8811763888995
 20
-387.1201229057422
 30
0.0
 10
918.6463414733097
 20
-387.1201229057422
 30
0.0
 10
851.8303930065217
 20
-387.6909756042364
 30
0.0
 10
851.8303930065217
 20
-387.6909756042364
 30
0.0
 10
850.4192809648606
 20
-387.6909756042364
 30
0.0
 10
849.1253022469703
 20
-386.3212047356709
 30
0.0
 10
849.1253022469703
 20
-385.1798438484582
 30
0.0
 10
849.1253022469703
 20
-384.0381384514696
 30
0.0
 10
849.1253022469703
 20
-365.8879854234243
 30
0.0
 10
849.1253022469703
 20
-365.8879854234243
 30
0.0
 10
849.1253022469703
 20
-365.8879854234243
 30
0.0
 10
831.4802005502421
 20
-345.341077885165
 30
0.0
 10
813.011720489361
 20
-334.0401237097233
 30
0.0
 10
794.5439294480316
 20
-322.7391695342815
 30
0.0
 10
776.4275383780142
 20
-315.3191179831837
 30
0.0
 10
760.665527115788
 20
-315.3191179831837
 30
0.0
 10
744.9024823242343
 20
-315.3191179831837
 30
0.0
 10
711.1415578255371
 20
-313.4925271519124
 30
0.0
 10
689.0267862976294
 20
-316.9166098135505
 30
0.0
 10
666.9123592794975
 20
-320.341726004516
 30
0.0
 10
639.2685503598371
 20
-324.9078585729184
 30
0.0
 10
605.5079703709158
 20
-338.2638135609843
 30
0.0
 10
571.7470458722187
 20
-351.6190795294986
 30
0.0
 10
547.6323950958142
 20
-367.2581008017657
 30
0.0
 10
547.6323950958142
 20
-367.2581008017657
 30
0.0
 10
547.6323950958142
 20
-367.2581008017657
 30
0.0
 10
547.6323950958142
 20
-379.8147931099844
 30
0.0
 10
547.7498729293607
 20
-381.869104903057
 30
0.0
 10
547.8673507629072
 20
-383.9241057156812
 30
0.0
 10
547.8380674319645
 20
-386.8917129243893
 30
0.0
 10
546.8968667244894
 20
-387.5765983586721
 30
0.0
  0
SPLINE
  5
147
330
1F
100
AcDbEntity
  8
\U+30EC\U+30A4\U+30E4\U+30FC 2
 62
   250
420
  2234132
370
    18
100
AcDbSpline
210
0.0
220
0.0
230
1.0
 70
     8
 71
     3
 72
    20
 73
    16
 74
     0
 42
0.0000000001
 43
0.0000000001
 40
0.0
 40
0.0
 40
0.0
 40
0.0
 40
1.0
 40
1.0
 40
1.0
 40
2.0
 40
2.0
 40
2.0
 40
3.0
 40
3.0
 40
3.0
 40
4.0
 40
4.0
 40
4.0
 40
5.0
 40
5.0
 40
5.0
 40
5.0
 10
923.0577891523797
 20
-376.4468655418011
 30
0.0
 10
922.3518886217734
 20
-375.4195373903769
 30
0.0
 10
918.9994639935007
 20
-375.0767501634597
 30
0.0
 10
915.6470393652282
 20
-375.0767501634597
 30
0.0
 10
912.2939257174041
 20
-375.0767501634597
 30
0.0
 10
874.0047647256422
 20
-376.2756441832304
 30
0.0
 10
871.358240627976
 20
-376.2756441832304
 30
0.0
 10
868.711372020534
 20
-376.2756441832304
 30
0.0
 10
866.946792948906
 20
-375.5907587489476
 30
0.0
 10
865.0061693818462
 20
-373.70732380467
 30
0.0
 10
863.0648567952348
 20
-371.8238888603923
 30
0.0
 10
848.9489132417626
 20
-351.7899563782935
 30
0.0
 10
825.4809073145276
 20
-335.5235828043016
 30
0.0
 10
802.0132458970684
 20
-319.2568647205339
 30
0.0
 10
788.2504248637872
 20
-312.0655676605646
 30
0.0
 10
771.4879572126488
 20
-308.9835832062921
 30
0.0
  0
SPLINE
  5
148
330
1F
100
AcDbEntity
  8
\U+30EC\U+30A4\U+30E4\U+30FC 2
 62
   250
420
  2234132
370
    18
100
AcDbSpline
210
0.0
220
0.0
230
1.0
 70
     8
 71
     3
 72
    14
 73
    10
 74
     0
 42
0.0000000001
 43
0.0000000001
 40
0.0
 40
0.0
 40
0.0
 40
0.0
 40
1.0
 40
1.0
 40
1.0
 40
2.0
 40
2.0
 40
2.0
 40
3.0
 40
3.0
 40
3.0
 40
3.0
 10
778.8983624900244
 20
-318.1440981447122
 30
0.0
 10
778.8983624900244
 20
-318.1440981447122
 30
0.0
 10
779.2514850102154
 20
-335.3527059555067
 30
0.0
 10
779.2514850102154
 20
-335.3527059555067
 30
0.0
 10
779.2514850102154
 20
-335.3527059555067
 30
0.0
 10
795.2198576281437
 20
-336.2084682385844
 30
0.0
 10
805.3660150351167
 20
-338.8625715513181
 30
0.0
 10
815.511483422538
 20
-341.5163303542759
 30
0.0
 10
827.2454863861556
 20
-345.4547661111777
 30
0.0
 10
831.9215175730369
 20
-348.4513121410528
 30
0.0
  0
SPLINE
  5
149
330
1F
100
AcDbEntity
  8
\U+30EC\U+30A4\U+30E4\U+30FC 2
 62
   250
420
  2234132
370
    18
100
AcDbSpline
210
0.0
220
0.0
230
1.0
 70
     8
 71
     3
 72
    20
 73
    16
 74
     0
 42
0.0000000001
 43
0.0000000001
 40
0.0
 40
0.0
 40
0.0
 40
0.0
 40
1.0
 40
1.0
 40
1.0
 40
2.0
 40
2.0
 40
2.0
 40
3.0
 40
3.0
 40
3.0
 40
4.0
 40
4.0
 40
4.0
 40
5.0
 40
5.0
 40
5.0
 40
5.0
 10
702.4957404921564
 20
-336.8075707386939
 30
0.0
 10
702.4957404921564
 20
-336.8075707386939
 30
0.0
 10
702.4957404921564
 20
-354.3586212666297
 30
0.0
 10
702.4957404921564
 20
-358.0400527307876
 30
0.0
 10
702.4957404921564
 20
-361.7214841949454
 30
0.0
 10
704.5252475813717
 20
-366.258677942181
 30
0.0
 10
708.8478117382862
 20
-366.258677942181
 30
0.0
 10
713.1714094245281
 20
-366.258677942181
 30
0.0
 10
786.574040294763
 20
-366.258677942181
 30
0.0
 10
791.1615324692648
 20
-366.258677942181
 30
0.0
 10
795.7493691535424
 20
-366.258677942181
 30
0.0
 10
797.8667262355857
 20
-364.2040216393326
 30
0.0
 10
797.8667262355857
 20
-360.9508158264894
 30
0.0
 10
797.8667262355857
 20
-357.6976100136462
 30
0.0
 10
797.8667262355857
 20
-337.57823910715
 30
0.0
 10
797.8667262355857
 20
-337.57823910715
 30
0.0
  0
SPLINE
  5
14A
330
1F
100
AcDbEntity
  8
\U+30EC\U+30A4\U+30E4\U+30FC 2
 62
   250
420
  2234132
370
    18
100
AcDbSpline
210
0.0
220
0.0
230
1.0
 70
     8
 71
     3
 72
    17
 73
    13
 74
     0
 42
0.0000000001
 43
0.0000000001
 40
0.0
 40
0.0
 40
0.0
 40
0.0
 40
1.0
 40
1.0
 40
1.0
 40
2.0
 40
2.0
 40
2.0
 40
3.0
 40
3.0
 40
3.0
 40
4.0
 40
4.0
 40
4.0
 40
4.0
 10
481.0520913156708
 20
-376.4468655418011
 30
0.0
 10
481.7576473365013
 20
-375.933201466089
 30
0.0
 10
483.9635434309242
 20
-375.4195373903769
 30
0.0
 10
486.2572895181751
 20
-375.4195373903769
 30
0.0
 10
488.551035605426
 20
-375.4195373903769
 30
0.0
 10
511.66591901247
 20
-376.2756441832304
 30
0.0
 10
512.4600140456802
 20
-376.2756441832304
 30
0.0
 10
513.2541090788903
 20
-376.2756441832304
 30
0.0
 10
514.8419546355349
 20
-376.7893082589425
 30
0.0
 10
514.8419546355349
 20
-379.6146329302468
 30
0.0
 10
514.8419546355349
 20
-382.4399576015512
 30
0.0
 10
514.8419546355349
 20
-387.8336026514161
 30
0.0
 10
514.8419546355349
 20
-387.8336026514161
 30
0.0
  0
SPLINE
  5
14B
330
1F
100
AcDbEntity
  8
\U+30EC\U+30A4\U+30E4\U+30FC 2
 62
   250
420
  2234132
370
    18
100
AcDbSpline
210
0.0
220
0.0
230
1.0
 70
     8
 71
     3
 72
    17
 73
    13
 74
     0
 42
0.0000000001
 43
0.0000000001
 40
0.0
 40
0.0
 40
0.0
 40
0.0
 40
1.0
 40
1.0
 40
1.0
 40
2.0
 40
2.0
 40
2.0
 40
3.0
 40
3.0
 40
3.0
 40
4.0
 40
4.0
 40
4.0
 40
4.0
 10
514.0482041121005
 20
-376.7893082589425
 30
0.0
 10
514.0482041121005
 20
-376.7893082589425
 30
0.0
 10
533.6339293758884
 20
-363.518791695274
 30
0.0
 10
553.2196546396765
 20
-353.5879528981737
 30
0.0
 10
572.8053799034644
 20
-343.6567695912975
 30
0.0
 10
583.657093331268
 20
-337.4070177485792
 30
0.0
 10
610.8306464069666
 20
-328.0752814515884
 30
0.0
 10
638.0035104631136
 20
-318.7435451545976
 30
0.0
 10
660.1479098317398
 20
-313.0932403217646
 30
0.0
 10
675.4107264288374
 20
-310.6100138578258
 30
0.0
 10
690.673887535711
 20
-308.1274764134386
 30
0.0
 10
701.7901844713259
 20
-307.3564635352068
 30
0.0
 10
711.3186358502963
 20
-307.1855866864119
 30
0.0
  0
POLYLINE
  5
14C
330
1F
100
AcDbEntity
  8
\U+30EC\U+30A4\U+30E4\U+30FC 2
 62
   250
420
  2234132
370
    18
100
AcDb2dPolyline
 66
     1
 10
0.0
 20
0.0
 30
0.0
  0
VERTEX
  5
14D
330
14C
100
AcDbEntity
  8
\U+30EC\U+30A4\U+30E4\U+30FC 2
 62
   250
420
  2234132
370
    18
100
AcDbVertex
100
AcDb2dVertex
 10
629.0931096219215
 20
-330.0444993300393
 30
0.0
  0
VERTEX
  5
14E
330
14C
100
AcDbEntity
  8
\U+30EC\U+30A4\U+30E4\U+30FC 2
 62
   250
420
  2234132
370
    18
100
AcDbVertex
100
AcDb2dVertex
 10
629.0931096219215
 20
-344.2565611109587
 30
0.0
  0
SEQEND
  5
14F
330
14C
100
AcDbEntity
  8
\U+30EC\U+30A4\U+30E4\U+30FC 2
370
    18
  0
POLYLINE
  5
150
330
1F
100
AcDbEntity
  8
\U+30EC\U+30A4\U+30E4\U+30FC 2
 62
   250
420
  2234132
370
    18
100
AcDb2dPolyline
 66
     1
 10
0.0
 20
0.0
 30
0.0
  0
VERTEX
  5
151
330
150
100
AcDbEntity
  8
\U+30EC\U+30A4\U+30E4\U+30FC 2
 62
   250
420
  2234132
370
    18
100
AcDbVertex
100
AcDb2dVertex
 10
635.8568700501277
 20
-327.9326544044088
 30
0.0
  0
VERTEX
  5
152
330
150
100
AcDbEntity
  8
\U+30EC\U+30A4\U+30E4\U+30FC 2
 62
   250
420
  2234132
370
    18
100
AcDbVertex
100
AcDb2dVertex
 10
635.8568700501277
 20
-342.9432898456237
 30
0.0
  0
SEQEND
  5
153
330
150
100
AcDbEntity
  8
\U+30EC\U+30A4\U+30E4\U+30FC 2
370
    18
  0
POLYLINE
  5
154
330
1F
100
AcDbEntity
  8
\U+30EC\U+30A4\U+30E4\U+30FC 2
 62
   250
420
  2234132
370
    18
100
AcDb2dPolyline
 66
     1
 10
0.0
 20
0.0
 30
0.0
  0
VERTEX
  5
155
330
154
100
AcDbEntity
  8
\U+30EC\U+30A4\U+30E4\U+30FC 2
 62
   250
420
  2234132
370
    18
100
AcDbVertex
100
AcDb2dVertex
 10
695.673068892289
 20
-315.9468147946843
 30
0.0
  0
VERTEX
  5
156
330
154
100
AcDbEntity
  8
\U+30EC\U+30A4\U+30E4\U+30FC 2
 62
   250
420
  2234132
370
    18
100
AcDbVertex
100
AcDb2dVertex
 10
695.673068892289
 20
-336.151624125578
 30
0.0
  0
SEQEND
  5
157
330
154
100
AcDbEntity
  8
\U+30EC\U+30A4\U+30E4\U+30FC 2
370
    18
  0
POLYLINE
  5
158
330
1F
100
AcDbEntity
  8
\U+30EC\U+30A4\U+30E4\U+30FC 2
 62
   250
420
  2234132
370
    18
100
AcDb2dPolyline
 66
     1
 10
0.0
 20
0.0
 30
0.0
  0
VERTEX
  5
159
330
158
100
AcDbEntity
  8
\U+30EC\U+30A4\U+30E4\U+30FC 2
 62
   250
420
  2234132
370
    18
100
AcDbVertex
100
AcDb2dVertex
 10
702.08405131008
 20
-315.6040275677671
 30
0.0
  0
VERTEX
  5
15A
330
158
100
AcDbEntity
  8
\U+30EC\U+30A4\U+30E4\U+30FC 2
 62
   250
420
  2234132
370
    18
100
AcDbVertex
100
AcDb2dVertex
 10
702.08405131008
 20
-336.5512554655015
 30
0.0
  0
SEQEND
  5
15B
330
158
100
AcDbEntity
  8
\U+30EC\U+30A4\U+30E4\U+30FC 2
370
    18
  0
POLYLINE
  5
15C
330
1F
100
AcDbEntity
  8
\U+30EC\U+30A4\U+30E4\U+30FC 2
 62
   250
420
  2234132
370
    18
100
AcDb2dPolyline
 66
     1
 10
0.0
 20
0.0
 30
0.0
  0
VERTEX
  5
15D
330
15C
100
AcDbEntity
  8
\U+30EC\U+30A4\U+30E4\U+30FC 2
 62
   250
420
  2234132
370
    18
100
AcDbVertex
100
AcDb2dVertex
 10
759.8421487516351
 20
-366.5153377251492
 30
0.0
  0
VERTEX
  5
15E
330
15C
100
AcDbEntity
  8
\U+30EC\U+30A4\U+30E4\U+30FC 2
 62
   250
420
  2234132
370
    18
100
AcDbVertex
100
AcDb2dVertex
 10
759.8421487516351
 20
-368.1424573962344
 30
0.0
  0
VERTEX
  5
15F
330
15C
100
AcDbEntity
  8
\U+30EC\U+30A4\U+30E4\U+30FC 2
 62
   250
420
  2234132
370
    18
100
AcDbVertex
100
AcDb2dVertex
 10
777.6632949437951
 20
-368.1424573962344
 30
0.0
  0
VERTEX
  5
160
330
15C
100
AcDbEntity
  8
\U+30EC\U+30A4\U+30E4\U+30FC 2
 62
   250
420
  2234132
370
    18
100
AcDbVertex
100
AcDb2dVertex
 10
777.6632949437951
 20
-366.4302438105275
 30
0.0
  0
SEQEND
  5
161
330
15C
100
AcDbEntity
  8
\U+30EC\U+30A4\U+30E4\U+30FC 2
370
    18
  0
POLYLINE
  5
162
330
1F
100
AcDbEntity
  8
\U+30EC\U+30A4\U+30E4\U+30FC 2
 62
   250
420
  2234132
370
    18
100
AcDb2dPolyline
 66
     1
 10
0.0
 20
0.0
 30
0.0
  0
VERTEX
  5
163
330
162
100
AcDbEntity
  8
\U+30EC\U+30A4\U+30E4\U+30FC 2
 62
   250
420
  2234132
370
    18
100
AcDbVertex
100
AcDb2dVertex
 10
760.8122882802771
 20
-368.2278958206319
 30
0.0
  0
VERTEX
  5
164
330
162
100
AcDbEntity
  8
\U+30EC\U+30A4\U+30E4\U+30FC 2
 62
   250
420
  2234132
370
    18
100
AcDbVertex
100
AcDb2dVertex
 10
760.8122882802771
 20
-369.9404539161146
 30
0.0
  0
VERTEX
  5
165
330
162
100
AcDbEntity
  8
\U+30EC\U+30A4\U+30E4\U+30FC 2
 62
   250
420
  2234132
370
    18
100
AcDbVertex
100
AcDb2dVertex
 10
776.2514938825824
 20
-369.9404539161146
 30
0.0
  0
VERTEX
  5
166
330
162
100
AcDbEntity
  8
\U+30EC\U+30A4\U+30E4\U+30FC 2
 62
   250
420
  2234132
370
    18
100
AcDbVertex
100
AcDb2dVertex
 10
776.2514938825824
 20
-368.4849001133758
 30
0.0
  0
SEQEND
  5
167
330
162
100
AcDbEntity
  8
\U+30EC\U+30A4\U+30E4\U+30FC 2
370
    18
  0
SPLINE
  5
168
330
1F
100
AcDbEntity
  8
\U+30EC\U+30A4\U+30E4\U+30FC 2
 62
   250
420
  2234132
370
    18
100
AcDbSpline
210
0.0
220
0.0
230
1.0
 70
     8
 71
     3
 72
    20
 73
    16
 74
     0
 42
0.0000000001
 43
0.0000000001
 40
0.0
 40
0.0
 40
0.0
 40
0.0
 40
1.0
 40
1.0
 40
1.0
 40
2.0
 40
2.0
 40
2.0
 40
3.0
 40
3.0
 40
3.0
 40
4.0
 40
4.0
 40
4.0
 40
5.0
 40
5.0
 40
5.0
 40
5.0
 10
761.6063833134873
 20
-370.3683350576535
 30
0.0
 10
761.6063833134873
 20
-370.3683350576535
 30
0.0
 10
761.6063833134873
 20
-372.6799956532458
 30
0.0
 10
761.6063833134873
 20
-373.70732380467
 30
0.0
 10
761.6063833134873
 20
-374.7346519560941
 30
0.0
 10
762.223744831714
 20
-375.5049758147744
 30
0.0
 10
763.3709623851153
 20
-375.5049758147744
 30
0.0
 10
764.5178354287407
 20
-375.5049758147744
 30
0.0
 10
772.8994137640857
 20
-375.5049758147744
 30
0.0
 10
774.134481310315
 20
-375.5049758147744
 30
0.0
 10
775.3695488565443
 20
-375.5049758147744
 30
0.0
 10
775.7223268669595
 20
-374.8204348902674
 30
0.0
 10
775.7223268669595
 20
-373.9639835876381
 30
0.0
 10
775.7223268669595
 20
-373.1078767947846
 30
0.0
 10
775.7223268669595
 20
-370.1116752746854
 30
0.0
 10
775.7223268669595
 20
-370.1116752746854
 30
0.0
  0
SPLINE
  5
169
330
1F
100
AcDbEntity
  8
\U+30EC\U+30A4\U+30E4\U+30FC 2
 62
   250
420
  2234132
370
    18
100
AcDbSpline
210
0.0
220
0.0
230
1.0
 70
    11
 71
     3
 72
    17
 73
    13
 74
     0
 42
0.0000000001
 43
0.0000000001
 40
0.0
 40
0.0
 40
0.0
 40
0.0
 40
1.0
 40
1.0
 40
1.0
 40
2.0
 40
2.0
 40
2.0
 40
3.0
 40
3.0
 40
3.0
 40
4.0
 40
4.0
 40
4.0
 40
4.0
 10
770.4289341618513
 20
-370.0258923405121
 30
0.0
 10
769.2820611182259
 20
-370.0258923405121
 30
0.0
 10
766.106025495161
 20
-371.3953186993019
 30
0.0
 10
766.106025495161
 20
-372.4229913605018
 30
0.0
 10
766.106025495161
 20
-373.4506640217018
 30
0.0
 10
768.0466490622209
 20
-375.3337544562037
 30
0.0
 10
770.1643506540399
 20
-375.3337544562037
 30
0.0
 10
772.2817077360831
 20
-375.3337544562037
 30
0.0
 10
773.7817032998997
 20
-373.9639835876381
 30
0.0
 10
773.7817032998997
 20
-372.6799956532458
 30
0.0
 10
773.7817032998997
 20
-371.3953186993019
 30
0.0
 10
772.369902238687
 20
-370.0258923405121
 30
0.0
 10
770.4289341618513
 20
-370.0258923405121
 30
0.0
  0
SPLINE
  5
16A
330
1F
100
AcDbEntity
  8
\U+30EC\U+30A4\U+30E4\U+30FC 2
 62
   250
420
  2234132
370
    18
100
AcDbSpline
210
0.0
220
0.0
230
1.0
 70
     8
 71
     3
 72
    11
 73
     7
 74
     0
 42
0.0000000001
 43
0.0000000001
 40
0.0
 40
0.0
 40
0.0
 40
0.0
 40
1.0
 40
1.0
 40
1.0
 40
2.0
 40
2.0
 40
2.0
 40
2.0
 10
762.9299898720961
 20
-374.9058733146648
 30
0.0
 10
764.3414464235331
 20
-374.9058733146648
 30
0.0
 10
766.106025495161
 20
-373.3648810875285
 30
0.0
 10
766.106025495161
 20
-372.4229913605018
 30
0.0
 10
766.106025495161
 20
-371.4814461432509
 30
0.0
 10
763.8122794079102
 20
-370.1116752746854
 30
0.0
 10
762.5768673519051
 20
-370.1116752746854
 30
0.0
  0
SPLINE
  5
16B
330
1F
100
AcDbEntity
  8
\U+30EC\U+30A4\U+30E4\U+30FC 2
 62
   250
420
  2234132
370
    18
100
AcDbSpline
210
0.0
220
0.0
230
1.0
 70
     8
 71
     3
 72
    11
 73
     7
 74
     0
 42
0.0000000001
 43
0.0000000001
 40
0.0
 40
0.0
 40
0.0
 40
0.0
 40
1.0
 40
1.0
 40
1.0
 40
2.0
 40
2.0
 40
2.0
 40
2.0
 10
775.3695488565443
 20
-370.0258923405121
 30
0.0
 10
775.1049653487328
 20
-370.1116752746854
 30
0.0
 10
773.7817032998997
 20
-371.224441850507
 30
0.0
 10
773.7817032998997
 20
-372.6799956532458
 30
0.0
 10
773.7817032998997
 20
-374.1352049462088
 30
0.0
 10
774.3990648181265
 20
-374.8204348902674
 30
0.0
 10
775.1931598513366
 20
-375.1628776074087
 30
0.0
  0
POLYLINE
  5
16C
330
1F
100
AcDbEntity
  8
\U+30EC\U+30A4\U+30E4\U+30FC 2
 62
   250
420
  2234132
370
    18
100
AcDb2dPolyline
 66
     1
 10
0.0
 20
0.0
 30
0.0
  0
VERTEX
  5
16D
330
16C
100
AcDbEntity
  8
\U+30EC\U+30A4\U+30E4\U+30FC 2
 62
   250
420
  2234132
370
    18
100
AcDbVertex
100
AcDb2dVertex
 10
725.2578458887851
 20
-366.3444608763542
 30
0.0
  0
VERTEX
  5
16E
330
16C
100
AcDbEntity
  8
\U+30EC\U+30A4\U+30E4\U+30FC 2
 62
   250
420
  2234132
370
    18
100
AcDbVertex
100
AcDb2dVertex
 10
725.2578458887851
 20
-368.2278958206319
 30
0.0
  0
VERTEX
  5
16F
330
16C
100
AcDbEntity
  8
\U+30EC\U+30A4\U+30E4\U+30FC 2
 62
   250
420
  2234132
370
    18
100
AcDbVertex
100
AcDb2dVertex
 10
744.8439156623489
 20
-368.2278958206319
 30
0.0
  0
VERTEX
  5
170
330
16C
100
AcDbEntity
  8
\U+30EC\U+30A4\U+30E4\U+30FC 2
 62
   250
420
  2234132
370
    18
100
AcDbVertex
100
AcDb2dVertex
 10
744.8439156623489
 20
-366.4302438105275
 30
0.0
  0
SEQEND
  5
171
330
16C
100
AcDbEntity
  8
\U+30EC\U+30A4\U+30E4\U+30FC 2
370
    18
  0
POLYLINE
  5
172
330
1F
100
AcDbEntity
  8
\U+30EC\U+30A4\U+30E4\U+30FC 2
 62
   250
420
  2234132
370
    18
100
AcDb2dPolyline
 66
     1
 10
0.0
 20
0.0
 30
0.0
  0
VERTEX
  5
173
330
172
100
AcDbEntity
  8
\U+30EC\U+30A4\U+30E4\U+30FC 2
 62
   250
420
  2234132
370
    18
100
AcDbVertex
100
AcDb2dVertex
 10
726.4929134350143
 20
-368.5706830475491
 30
0.0
  0
VERTEX
  5
174
330
172
100
AcDbEntity
  8
\U+30EC\U+30A4\U+30E4\U+30FC 2
 62
   250
420
  2234132
370
    18
100
AcDbVertex
100
AcDb2dVertex
 10
726.4929134350143
 20
-370.2825521234802
 30
0.0
  0
VERTEX
  5
175
330
172
100
AcDbEntity
  8
\U+30EC\U+30A4\U+30E4\U+30FC 2
 62
   250
420
  2234132
370
    18
100
AcDbVertex
100
AcDb2dVertex
 10
743.5206536135158
 20
-370.2825521234802
 30
0.0
  0
VERTEX
  5
176
330
172
100
AcDbEntity
  8
\U+30EC\U+30A4\U+30E4\U+30FC 2
 62
   250
420
  2234132
370
    18
100
AcDbVertex
100
AcDb2dVertex
 10
743.5206536135158
 20
-368.3136787548052
 30
0.0
  0
SEQEND
  5
177
330
172
100
AcDbEntity
  8
\U+30EC\U+30A4\U+30E4\U+30FC 2
370
    18
  0
SPLINE
  5
178
330
1F
100
AcDbEntity
  8
\U+30EC\U+30A4\U+30E4\U+30FC 2
 62
   250
420
  2234132
370
    18
100
AcDbSpline
210
0.0
220
0.0
230
1.0
 70
     8
 71
     3
 72
    20
 73
    16
 74
     0
 42
0.0000000001
 43
0.0000000001
 40
0.0
 40
0.0
 40
0.0
 40
0.0
 40
1.0
 40
1.0
 40
1.0
 40
2.0
 40
2.0
 40
2.0
 40
3.0
 40
3.0
 40
3.0
 40
4.0
 40
4.0
 40
4.0
 40
5.0
 40
5.0
 40
5.0
 40
5.0
 10
727.0224249604131
 20
-370.5395564162242
 30
0.0
 10
726.4047189324106
 20
-370.5395564162242
 30
0.0
 10
726.0515964122195
 20
-370.3683350576535
 30
0.0
 10
726.0515964122195
 20
-371.4814461432509
 30
0.0
 10
726.0515964122195
 20
-372.5942127190725
 30
0.0
 10
725.6106238992004
 20
-375.5049758147744
 30
0.0
 10
727.0224249604131
 20
-375.5049758147744
 30
0.0
 10
728.43388151185
 20
-375.5049758147744
 30
0.0
 10
739.7269119624484
 20
-375.676197173345
 30
0.0
 10
741.4029520216967
 20
-375.676197173345
 30
0.0
 10
743.0793365907209
 20
-375.676197173345
 30
0.0
 10
743.6966981089477
 20
-375.0767501634597
 30
0.0
 10
743.6966981089477
 20
-374.0501110315872
 30
0.0
 10
743.6966981089477
 20
-373.0224383703872
 30
0.0
 10
744.2262096343463
 20
-370.4541179918267
 30
0.0
 10
743.167186583549
 20
-370.4541179918267
 30
0.0
  0
SPLINE
  5
179
330
1F
100
AcDbEntity
  8
\U+30EC\U+30A4\U+30E4\U+30FC 2
 62
   250
420
  2234132
370
    18
100
AcDbSpline
210
0.0
220
0.0
230
1.0
 70
     8
 71
     3
 72
    29
 73
    25
 74
     0
 42
0.0000000001
 43
0.0000000001
 40
0.0
 40
0.0
 40
0.0
 40
0.0
 40
1.0
 40
1.0
 40
1.0
 40
2.0
 40
2.0
 40
2.0
 40
3.0
 40
3.0
 40
3.0
 40
4.0
 40
4.0
 40
4.0
 40
5.0
 40
5.0
 40
5.0
 40
6.0
 40
6.0
 40
6.0
 40
7.0
 40
7.0
 40
7.0
 40
8.0
 40
8.0
 40
8.0
 40
8.0
 10
690.673887535711
 20
-306.1871973561546
 30
0.0
 10
690.673887535711
 20
-306.1871973561546
 30
0.0
 10
691.1441433796726
 20
-302.1915729764706
 30
0.0
 10
694.3205235125133
 20
-300.8218021079051
 30
0.0
 10
697.4965591355782
 20
-299.4520312393395
 30
0.0
 10
701.6134509563425
 20
-295.6848168410084
 30
0.0
 10
702.672129497364
 20
-293.5161278023715
 30
0.0
 10
703.7311525481615
 20
-291.3474387637347
 30
0.0
 10
704.3195752452214
 20
-285.9823880252609
 30
0.0
 10
705.378253786243
 20
-285.9823880252609
 30
0.0
 10
706.4365878174888
 20
-285.9823880252609
 30
0.0
 10
794.5439294480316
 20
-285.9823880252609
 30
0.0
 10
795.2491409590864
 20
-285.9823880252609
 30
0.0
 10
795.9553859994685
 20
-285.9823880252609
 30
0.0
 10
797.3668425509054
 20
-287.8082898369806
 30
0.0
 10
797.7199650710965
 20
-289.5208479324634
 30
0.0
 10
798.072398571736
 20
-291.2330615181703
 30
0.0
 10
800.6607005172925
 20
-295.5707841052199
 30
0.0
 10
802.1899794120518
 20
-297.2829976909268
 30
0.0
 10
803.7189137970352
 20
-298.9955557864096
 30
0.0
 10
807.2480719402911
 20
-300.7074248623408
 30
0.0
 10
808.5420506581816
 20
-301.5066875421879
 30
0.0
 10
809.8353403565203
 20
-302.305950222035
 30
0.0
 10
810.6594077402248
 20
-306.1871973561546
 30
0.0
 10
810.6594077402248
 20
-306.1871973561546
 30
0.0
  0
POLYLINE
  5
17A
330
1F
100
AcDbEntity
  8
\U+30EC\U+30A4\U+30E4\U+30FC 2
 62
   250
420
  2234132
370
    18
100
AcDb2dPolyline
 66
     1
 10
0.0
 20
0.0
 30
0.0
  0
VERTEX
  5
17B
330
17A
100
AcDbEntity
  8
\U+30EC\U+30A4\U+30E4\U+30FC 2
 62
   250
420
  2234132
370
    18
100
AcDbVertex
100
AcDb2dVertex
 10
704.9073089227296
 20
-286.0964207610494
 30
0.0
  0
VERTEX
  5
17C
330
17A
100
AcDbEntity
  8
\U+30EC\U+30A4\U+30E4\U+30FC 2
 62
   250
420
  2234132
370
    18
100
AcDbVertex
100
AcDb2dVertex
 10
704.9073089227296
 20
-154.8223487330225
 30
0.0
  0
VERTEX
  5
17D
330
17A
100
AcDbEntity
  8
\U+30EC\U+30A4\U+30E4\U+30FC 2
 62
   250
420
  2234132
370
    18
100
AcDbVertex
100
AcDb2dVertex
 10
796.1906861763373
 20
-154.8223487330225
 30
0.0
  0
VERTEX
  5
17E
330
17A
100
AcDbEntity
  8
\U+30EC\U+30A4\U+30E4\U+30FC 2
 62
   250
420
  2234132
370
    18
100
AcDbVertex
100
AcDb2dVertex
 10
796.1906861763373
 20
-286.3248307424023
 30
0.0
  0
SEQEND
  5
17F
330
17A
100
AcDbEntity
  8
\U+30EC\U+30A4\U+30E4\U+30FC 2
370
    18
  0
SPLINE
  5
180
330
1F
100
AcDbEntity
  8
\U+30EC\U+30A4\U+30E4\U+30FC 2
 62
   250
420
  2234132
370
    18
100
AcDbSpline
210
0.0
220
0.0
230
1.0
 70
    11
 71
     3
 72
    17
 73
    13
 74
     0
 42
0.0000000001
 43
0.0000000001
 40
0.0
 40
0.0
 40
0.0
 40
0.0
 40
1.0
 40
1.0
 40
1.0
 40
2.0
 40
2.0
 40
2.0
 40
3.0
 40
3.0
 40
3.0
 40
4.0
 40
4.0
 40
4.0
 40
4.0
 10
816.2470117938628
 20
-111.901253805681
 30
0.0
 10
816.2470117938628
 20
-117.2917982675636
 30
0.0
 10
811.7442690242069
 20
-121.6612157539865
 30
0.0
 10
806.1893933992695
 20
-121.6612157539865
 30
0.0
 10
800.634517774332
 20
-121.6612157539865
 30
0.0
 10
796.1314304949003
 20
-117.2917982675636
 30
0.0
 10
796.1314304949003
 20
-111.901253805681
 30
0.0
 10
796.1314304949003
 20
-106.5113983633499
 30
0.0
 10
800.634517774332
 20
-102.1419808769271
 30
0.0
 10
806.1893933992695
 20
-102.1419808769271
 30
0.0
 10
811.7442690242069
 20
-102.1419808769271
 30
0.0
 10
816.2470117938628
 20
-106.5113983633499
 30
0.0
 10
816.2470117938628
 20
-111.901253805681
 30
0.0
  0
SPLINE
  5
181
330
1F
100
AcDbEntity
  8
\U+30EC\U+30A4\U+30E4\U+30FC 2
 62
   250
420
  2234132
370
    18
100
AcDbSpline
210
0.0
220
0.0
230
1.0
 70
    11
 71
     3
 72
    17
 73
    13
 74
     0
 42
0.0000000001
 43
0.0000000001
 40
0.0
 40
0.0
 40
0.0
 40
0.0
 40
1.0
 40
1.0
 40
1.0
 40
2.0
 40
2.0
 40
2.0
 40
3.0
 40
3.0
 40
3.0
 40
4.0
 40
4.0
 40
4.0
 40
4.0
 10
809.541818027542
 20
-111.901253805681
 30
0.0
 10
809.541818027542
 20
-113.6982167962338
 30
0.0
 10
808.0411334441739
 20
-115.1548041283
 30
0.0
 10
806.1893933992695
 20
-115.1548041283
 30
0.0
 10
804.3376533543651
 20
-115.1548041283
 30
0.0
 10
802.8366242612212
 20
-113.6982167962338
 30
0.0
 10
802.8366242612212
 20
-111.901253805681
 30
0.0
 10
802.8366242612212
 20
-110.104635324904
 30
0.0
 10
804.3376533543651
 20
-108.6483925026136
 30
0.0
 10
806.1893933992695
 20
-108.6483925026136
 30
0.0
 10
808.0411334441739
 20
-108.6483925026136
 30
0.0
 10
809.541818027542
 20
-110.104635324904
 30
0.0
 10
809.541818027542
 20
-111.901253805681
 30
0.0
  0
SPLINE
  5
182
330
1F
100
AcDbEntity
  8
\U+30EC\U+30A4\U+30E4\U+30FC 2
 62
   250
420
  2234132
370
    18
100
AcDbSpline
210
0.0
220
0.0
230
1.0
 70
     8
 71
     3
 72
    23
 73
    19
 74
     0
 42
0.0000000001
 43
0.0000000001
 40
0.0
 40
0.0
 40
0.0
 40
0.0
 40
1.0
 40
1.0
 40
1.0
 40
2.0
 40
2.0
 40
2.0
 40
3.0
 40
3.0
 40
3.0
 40
4.0
 40
4.0
 40
4.0
 40
5.0
 40
5.0
 40
5.0
 40
6.0
 40
6.0
 40
6.0
 40
6.0
 10
778.8983624900244
 20
-98.43126608182659
 30
0.0
 10
778.8983624900244
 20
-98.43126608182659
 30
0.0
 10
800.8960006941613
 20
-98.43126608182659
 30
0.0
 10
806.0715710559472
 20
-98.43126608182659
 30
0.0
 10
816.305922965524
 20
-98.43126608182659
 30
0.0
 10
820.658114963157
 20
-105.3948421799945
 30
0.0
 10
820.658114963157
 20
-108.7048921058441
 30
0.0
 10
820.658114963157
 20
-112.0156310512453
 30
0.0
 10
820.658114963157
 20
-132.3341286081518
 30
0.0
 10
820.658114963157
 20
-132.3341286081518
 30
0.0
 10
820.658114963157
 20
-132.3341286081518
 30
0.0
 10
818.305457704245
 20
-132.3341286081518
 30
0.0
 10
817.4820793400921
 20
-132.3341286081518
 30
0.0
 10
816.305922965524
 20
-132.3341286081518
 30
0.0
 10
816.4234007990705
 20
-129.937029588162
 30
0.0
 10
816.4234007990705
 20
-128.9100459465136
 30
0.0
 10
816.4234007990705
 20
-127.8823732853137
 30
0.0
 10
816.4234007990705
 20
-113.500123675151
 30
0.0
 10
816.4234007990705
 20
-111.901253805681
 30
0.0
  0
SPLINE
  5
183
330
1F
100
AcDbEntity
  8
\U+30EC\U+30A4\U+30E4\U+30FC 2
 62
   250
420
  2234132
370
    18
100
AcDbSpline
210
0.0
220
0.0
230
1.0
 70
     8
 71
     3
 72
    32
 73
    28
 74
     0
 42
0.0000000001
 43
0.0000000001
 40
0.0
 40
0.0
 40
0.0
 40
0.0
 40
1.0
 40
1.0
 40
1.0
 40
2.0
 40
2.0
 40
2.0
 40
3.0
 40
3.0
 40
3.0
 40
4.0
 40
4.0
 40
4.0
 40
5.0
 40
5.0
 40
5.0
 40
6.0
 40
6.0
 40
6.0
 40
7.0
 40
7.0
 40
7.0
 40
8.0
 40
8.0
 40
8.0
 40
9.0
 40
9.0
 40
9.0
 40
9.0
 10
799.0139437889869
 20
-104.9380222172888
 30
0.0
 10
799.0139437889869
 20
-104.9380222172888
 30
0.0
 10
749.4903190085118
 20
-88.95724724743194
 30
0.0
 10
744.314748646726
 20
-87.24503366172499
 30
0.0
 10
739.1384892653886
 20
-85.53247556624223
 30
0.0
 10
728.5517038551723
 20
-84.73390190594671
 30
0.0
 10
721.8465100888515
 20
-86.21736100052502
 30
0.0
 10
715.1413163225307
 20
-87.70150911465491
 30
0.0
 10
506.5988692300599
 20
-138.1132800971325
 30
0.0
 10
497.755647795148
 20
-140.6678200846611
 30
0.0
 10
490.0506866594667
 20
-142.8936977460801
 30
0.0
 10
488.9920081184451
 20
-147.9445555690278
 30
0.0
 10
490.0506866594667
 20
-151.0265400233003
 30
0.0
 10
491.2743853830947
 20
-154.5880820854811
 30
0.0
 10
494.1975508307252
 20
-156.7629723000823
 30
0.0
 10
502.1378121432753
 20
-154.6225330630607
 30
0.0
 10
502.1378121432753
 20
-154.6225330630607
 30
0.0
 10
683.96869376939
 20
-109.8472865223842
 30
0.0
 10
694.6733015229286
 20
-106.6505803127716
 30
0.0
 10
705.378253786243
 20
-103.4545631227105
 30
0.0
 10
726.7940149790602
 20
-98.3944035358164
 30
0.0
 10
729.8456825730627
 20
-98.20354512002532
 30
0.0
 10
737.1392990364434
 20
-97.74741417687119
 30
0.0
 10
745.6087273646164
 20
-100.9430868571565
 30
0.0
 10
751.7254984338774
 20
-102.6553004428634
 30
0.0
 10
757.8426140129142
 20
-104.3675140285704
 30
0.0
 10
796.8965867069436
 20
-116.2389763927305
 30
0.0
 10
796.8965867069436
 20
-116.2389763927305
 30
0.0
  0
SPLINE
  5
184
330
1F
100
AcDbEntity
  8
\U+30EC\U+30A4\U+30E4\U+30FC 2
 62
   250
420
  2234132
370
    18
100
AcDbSpline
210
0.0
220
0.0
230
1.0
 70
     8
 71
     3
 72
    11
 73
     7
 74
     0
 42
0.0000000001
 43
0.0000000001
 40
0.0
 40
0.0
 40
0.0
 40
0.0
 40
1.0
 40
1.0
 40
1.0
 40
2.0
 40
2.0
 40
2.0
 40
2.0
 10
798.2198487557768
 20
-123.5436171689367
 30
0.0
 10
798.2198487557768
 20
-139.2288027511605
 30
0.0
 10
798.2198487557768
 20
-153.4525778644569
 30
0.0
 10
798.2198487557768
 20
-153.4525778644569
 30
0.0
 10
798.2198487557768
 20
-154.2508070149766
 30
0.0
 10
797.249364717359
 20
-154.8223487330225
 30
0.0
 10
796.1906861763373
 20
-154.8223487330225
 30
0.0
  0
SPLINE
  5
185
330
1F
100
AcDbEntity
  8
\U+30EC\U+30A4\U+30E4\U+30FC 2
 62
   250
420
  2234132
370
    18
100
AcDbSpline
210
0.0
220
0.0
230
1.0
 70
     8
 71
     3
 72
    20
 73
    16
 74
     0
 42
0.0000000001
 43
0.0000000001
 40
0.0
 40
0.0
 40
0.0
 40
0.0
 40
1.0
 40
1.0
 40
1.0
 40
2.0
 40
2.0
 40
2.0
 40
3.0
 40
3.0
 40
3.0
 40
4.0
 40
4.0
 40
4.0
 40
5.0
 40
5.0
 40
5.0
 40
5.0
 10
702.4075459895527
 20
-90.75352121843316
 30
0.0
 10
702.4075459895527
 20
-84.91339149913651
 30
0.0
 10
702.4075459895527
 20
-80.82095987245383
 30
0.0
 10
702.4075459895527
 20
-79.96726464803092
 30
0.0
 10
702.4075459895527
 20
-76.2003947594756
 30
0.0
 10
706.0248986354123
 20
-76.02951791068071
 30
0.0
 10
707.2603106914174
 20
-76.02951791068071
 30
0.0
 10
708.4950337278709
 20
-76.02951791068071
 30
0.0
 10
786.7504292999706
 20
-76.02951791068071
 30
0.0
 10
791.1615324692648
 20
-76.02951791068071
 30
0.0
 10
795.5729801483348
 20
-76.02951791068071
 30
0.0
 10
798.2198487557768
 20
-80.85196575227548
 30
0.0
 10
798.2198487557768
 20
-82.82152814050218
 30
0.0
 10
798.2198487557768
 20
-83.39823750518497
 30
0.0
 10
798.2198487557768
 20
-89.69725424584212
 30
0.0
 10
798.2198487557768
 20
-98.31654432648646
 30
0.0
  0
SPLINE
  5
186
330
1F
100
AcDbEntity
  8
\U+30EC\U+30A4\U+30E4\U+30FC 2
 62
   250
420
  2234132
370
    18
100
AcDbSpline
210
0.0
220
0.0
230
1.0
 70
     8
 71
     3
 72
    11
 73
     7
 74
     0
 42
0.0000000001
 43
0.0000000001
 40
0.0
 40
0.0
 40
0.0
 40
0.0
 40
1.0
 40
1.0
 40
1.0
 40
2.0
 40
2.0
 40
2.0
 40
2.0
 10
704.9073089227296
 20
-154.8223487330225
 30
0.0
 10
703.7311525481615
 20
-154.8223487330225
 30
0.0
 10
702.4075459895527
 20
-154.1943074117461
 30
0.0
 10
702.4075459895527
 20
-152.3963108918659
 30
0.0
 10
702.4075459895527
 20
-151.2859558844748
 30
0.0
 10
702.4075459895527
 20
-125.3529825114182
 30
0.0
 10
702.4075459895527
 20
-104.7967732092124
 30
0.0
  0
SPLINE
  5
187
330
1F
100
AcDbEntity
  8
\U+30EC\U+30A4\U+30E4\U+30FC 2
 62
   250
420
  2234132
370
    18
100
AcDbSpline
210
0.0
220
0.0
230
1.0
 70
     8
 71
     3
 72
    11
 73
     7
 74
     0
 42
0.0000000001
 43
0.0000000001
 40
0.0
 40
0.0
 40
0.0
 40
0.0
 40
1.0
 40
1.0
 40
1.0
 40
2.0
 40
2.0
 40
2.0
 40
2.0
 10
816.2790512030119
 20
-121.8920373037699
 30
0.0
 10
813.7007400409534
 20
-124.3942118053775
 30
0.0
 10
810.1388534689968
 20
-125.9420942280296
 30
0.0
 10
806.2042073196287
 20
-125.9420942280296
 30
0.0
 10
799.3184904307907
 20
-125.9420942280296
 30
0.0
 10
793.5737899193896
 20
-121.202328732626
 30
0.0
 10
792.2453602239195
 20
-114.9015894430898
 30
0.0
  0
POLYLINE
  5
188
330
1F
100
AcDbEntity
  8
\U+30EC\U+30A4\U+30E4\U+30FC 2
 62
   250
420
  2234132
370
    18
100
AcDb2dPolyline
 66
     1
 10
0.0
 20
0.0
 30
0.0
  0
VERTEX
  5
189
330
188
100
AcDbEntity
  8
\U+30EC\U+30A4\U+30E4\U+30FC 2
 62
   250
420
  2234132
370
    18
100
AcDbVertex
100
AcDb2dVertex
 10
756.4301239321499
 20
-75.94373497650746
 30
0.0
  0
VERTEX
  5
18A
330
188
100
AcDbEntity
  8
\U+30EC\U+30A4\U+30E4\U+30FC 2
 62
   250
420
  2234132
370
    18
100
AcDbVertex
100
AcDb2dVertex
 10
756.4301239321499
 20
-56.86237202448505
 30
0.0
  0
SEQEND
  5
18B
330
188
100
AcDbEntity
  8
\U+30EC\U+30A4\U+30E4\U+30FC 2
370
    18
  0
POLYLINE
  5
18C
330
1F
100
AcDbEntity
  8
\U+30EC\U+30A4\U+30E4\U+30FC 2
 62
   250
420
  2234132
370
    18
100
AcDb2dPolyline
 66
     1
 10
0.0
 20
0.0
 30
0.0
  0
VERTEX
  5
18D
330
18C
100
AcDbEntity
  8
\U+30EC\U+30A4\U+30E4\U+30FC 2
 62
   250
420
  2234132
370
    18
100
AcDbVertex
100
AcDb2dVertex
 10
784.8976557257389
 20
-75.94373497650746
 30
0.0
  0
VERTEX
  5
18E
330
18C
100
AcDbEntity
  8
\U+30EC\U+30A4\U+30E4\U+30FC 2
 62
   250
420
  2234132
370
    18
100
AcDbVertex
100
AcDb2dVertex
 10
784.8976557257389
 20
-55.43575704291312
 30
0.0
  0
SEQEND
  5
18F
330
18C
100
AcDbEntity
  8
\U+30EC\U+30A4\U+30E4\U+30FC 2
370
    18
  0
ENDSEC
  0
SECTION
  2
OBJECTS
  0
DICTIONARY
  5
C
330
0
100
AcDbDictionary
281
     1
  3
ACAD_GROUP
350
D
  3
ACAD_LAYOUT
350
1A
  3
ACAD_MLINESTYLE
350
17
  3
ACAD_PLOTSETTINGS
350
19
  3
ACAD_PLOTSTYLENAME
350
E
  3
ACAD_TABLESTYLE
350
190
  3
ACAD_VISUALSTYLE
350
2A
  0
DICTIONARY
  5
D
102
{ACAD_REACTORS
330
C
102
}
330
C
100
AcDbDictionary
281
     1
  0
DICTIONARY
  5
1A
102
{ACAD_REACTORS
330
C
102
}
330
C
100
AcDbDictionary
281
     1
  3
Layout1
350
1E
  3
Layout2
350
26
  3
Model
350
22
  0
DICTIONARY
  5
17
102
{ACAD_REACTORS
330
C
102
}
330
C
100
AcDbDictionary
281
     1
  3
Standard
350
18
  0
DICTIONARY
  5
19
102
{ACAD_REACTORS
330
C
102
}
330
C
100
AcDbDictionary
281
     1
  0
ACDBDICTIONARYWDFLT
  5
E
102
{ACAD_REACTORS
330
C
102
}
330
C
100
AcDbDictionary
281
     1
  3
Normal
350
F
100
AcDbDictionaryWithDefault
340
F
  0
DICTIONARY
  5
190
102
{ACAD_REACTORS
330
C
102
}
330
C
100
AcDbDictionary
281
     1
  0
DICTIONARY
  5
2A
102
{ACAD_REACTORS
330
C
102
}
330
C
100
AcDbDictionary
281
     1
  3
2dWireframe
350
2F
  3
3D Hidden
350
31
  3
3dWireframe
350
30
  3
Basic
350
32
  3
Brighten
350
36
  3
ColorChange
350
3A
  3
Conceptual
350
34
  3
Dim
350
35
  3
Facepattern
350
39
  3
Flat
350
2B
  3
FlatWithEdges
350
2C
  3
Gouraud
350
2D
  3
GouraudWithEdges
350
2E
  3
Linepattern
350
38
  3
Realistic
350
33
  3
Thicken
350
37
  0
LAYOUT
  5
1E
102
{ACAD_REACTORS
330
1A
102
}
330
1A
100
AcDbPlotSettings
  1

  2
none_device
  4

  6

 40
0.0
 41
0.0
 42
0.0
 43
0.0
 44
0.0
 45
0.0
 46
0.0
 47
0.0
 48
0.0
 49
0.0
140
0.0
141
0.0
142
1.0
143
1.0
 70
   688
 72
     0
 73
     0
 74
     5
  7

 75
    16
 76
     0
 77
     2
 78
   300
147
1.0
148
0.0
149
0.0
100
AcDbLayout
  1
Layout1
 70
     1
 71
     1
 10
0.0
 20
0.0
 11
12.0
 21
9.0
 12
0.0
 22
0.0
 32
0.0
 14
1.000000000000000E+20
 24
1.000000000000000E+20
 34
1.000000000000000E+20
 15
-1.000000000000000E+20
 25
-1.000000000000000E+20
 35
-1.000000000000000E+20
146
0.0
 13
0.0
 23
0.0
 33
0.0
 16
1.0
 26
0.0
 36
0.0
 17
0.0
 27
1.0
 37
0.0
 76
     0
330
1B
  0
LAYOUT
  5
26
102
{ACAD_REACTORS
330
1A
102
}
330
1A
100
AcDbPlotSettings
  1

  2
none_device
  4

  6

 40
0.0
 41
0.0
 42
0.0
 43
0.0
 44
0.0
 45
0.0
 46
0.0
 47
0.0
 48
0.0
 49
0.0
140
0.0
141
0.0
142
1.0
143
1.0
 70
   688
 72
     0
 73
     0
 74
     5
  7

 75
    16
 76
     0
 77
     2
 78
   300
147
1.0
148
0.0
149
0.0
100
AcDbLayout
  1
Layout2
 70
     1
 71
     2
 10
0.0
 20
0.0
 11
0.0
 21
0.0
 12
0.0
 22
0.0
 32
0.0
 14
0.0
 24
0.0
 34
0.0
 15
0.0
 25
0.0
 35
0.0
146
0.0
 13
0.0
 23
0.0
 33
0.0
 16
1.0
 26
0.0
 36
0.0
 17
0.0
 27
1.0
 37
0.0
 76
     0
330
23
  0
LAYOUT
  5
22
102
{ACAD_REACTORS
330
1A
102
}
330
1A
100
AcDbPlotSettings
  1

  2
none_device
  4

  6

 40
0.0
 41
0.0
 42
0.0
 43
0.0
 44
0.0
 45
0.0
 46
0.0
 47
0.0
 48
0.0
 49
0.0
140
0.0
141
0.0
142
1.0
143
1.0
 70
  1712
 72
     0
 73
     0
 74
     0
  7

 75
     0
 76
     0
 77
     2
 78
   300
147
1.0
148
0.0
149
0.0
100
AcDbLayout
  1
Model
 70
     1
 71
     0
 10
0.0
 20
0.0
 11
12.0
 21
9.0
 12
0.0
 22
0.0
 32
0.0
 14
1.000000000000000E+20
 24
1.000000000000000E+20
 34
1.000000000000000E+20
 15
-1.000000000000000E+20
 25
-1.000000000000000E+20
 35
-1.000000000000000E+20
146
0.0
 13
0.0
 23
0.0
 33
0.0
 16
1.0
 26
0.0
 36
0.0
 17
0.0
 27
1.0
 37
0.0
 76
     0
330
1F
331
29
  0
MLINESTYLE
  5
18
102
{ACAD_REACTORS
330
17
102
}
330
17
100
AcDbMlineStyle
  2
Standard
 70
     0
  3

 62
   256
 51
90.0
 52
90.0
 71
     2
 49
0.5
 62
   256
  6
BYLAYER
 49
-0.5
 62
   256
  6
BYLAYER
  0
ACDBPLACEHOLDER
  5
F
102
{ACAD_REACTORS
330
E
102
}
330
E
  0
VISUALSTYLE
  5
2F
102
{ACAD_REACTORS
330
2A
102
}
330
2A
100
AcDbVisualStyle
  2
2dWireframe
 70
     4
 71
     0
 72
     2
 73
     0
 90
        0
 40
-0.6
 41
-30.0
 62
     5
 63
     7
421
 16777215
 74
     1
 91
        4
 64
     7
 65
   257
 75
     1
175
     1
 42
1.0
 92
        0
 66
   257
 43
1.0
 76
     1
 77
     6
 78
     2
 67
     7
 79
     5
170
     0
171
     0
290
     0
174
     0
 93
        1
 44
0.0
173
     0
291
     0
 45
0.0
1001
ACAD
1000
AcDbSavedByObjectVersion
1070
     0
  0
VISUALSTYLE
  5
31
102
{ACAD_REACTORS
330
2A
102
}
330
2A
100
AcDbVisualStyle
  2
3D Hidden
 70
     6
 71
     1
 72
     2
 73
     2
 90
        0
 40
-0.6
 41
-30.0
 62
     5
 63
     7
421
 16777215
 74
     2
 91
        2
 64
     7
 65
   257
 75
     2
175
     1
 42
40.0
 92
        0
 66
   257
 43
1.0
 76
     1
 77
     6
 78
     2
 67
     7
 79
     3
170
     0
171
     0
290
     0
174
     0
 93
        1
 44
0.0
173
     0
291
     0
 45
0.0
1001
ACAD
1000
AcDbSavedByObjectVersion
1070
     0
  0
VISUALSTYLE
  5
30
102
{ACAD_REACTORS
330
2A
102
}
330
2A
100
AcDbVisualStyle
  2
3dWireframe
 70
     5
 71
     0
 72
     2
 73
     0
 90
        0
 40
-0.6
 41
-30.0
 62
     5
 63
     7
421
 16777215
 74
     1
 91
        4
 64
     7
 65
   257
 75
     1
175
     1
 42
1.0
 92
        0
 66
   257
 43
1.0
 76
     1
 77
     6
 78
     2
 67
     7
 79
     5
170
     0
171
     0
290
     0
174
     0
 93
        1
 44
0.0
173
     0
291
     0
 45
0.0
1001
ACAD
1000
AcDbSavedByObjectVersion
1070
     0
  0
VISUALSTYLE
  5
32
102
{ACAD_REACTORS
330
2A
102
}
330
2A
100
AcDbVisualStyle
  2
Basic
 70
     7
 71
     1
 72
     0
 73
     1
 90
        0
 40
-0.6
 41
-30.0
 62
     5
 63
     7
421
 16777215
 74
     0
 91
        4
 64
     7
 65
   257
 75
     1
175
     1
 42
1.0
 92
        8
 66
     7
 43
1.0
 76
     1
 77
     6
 78
     2
 67
     7
 79
     5
170
     0
171
     0
290
     0
174
     0
 93
        1
 44
0.0
173
     0
291
     1
 45
0.0
1001
ACAD
1000
AcDbSavedByObjectVersion
1070
     0
  0
VISUALSTYLE
  5
36
102
{ACAD_REACTORS
330
2A
102
}
330
2A
100
AcDbVisualStyle
  2
Brighten
 70
    12
 71
     2
 72
     2
 73
     0
 90
        0
 40
-0.6
 41
-30.0
 62
     5
 63
     7
421
 16777215
 74
     1
 91
        4
 64
     7
 65
   257
 75
     1
175
     1
 42
1.0
 92
        8
 66
     7
 43
1.0
 76
     1
 77
     6
 78
     2
 67
     7
 79
     5
170
     0
171
     0
290
     0
174
     0
 93
        1
 44
50.0
173
     0
291
     1
 45
0.0
1001
ACAD
1000
AcDbSavedByObjectVersion
1070
     0
  0
VISUALSTYLE
  5
3A
102
{ACAD_REACTORS
330
2A
102
}
330
2A
100
AcDbVisualStyle
  2
ColorChange
 70
    16
 71
     2
 72
     2
 73
     3
 90
        0
 40
-0.6
 41
-30.0
 62
     5
 63
     8
421
  8421504
 74
     1
 91
        4
 64
     7
 65
   257
 75
     1
175
     1
 42
1.0
 92
        8
 66
     8
424
  8421504
 43
1.0
 76
     1
 77
     6
 78
     2
 67
     7
 79
     5
170
     0
171
     0
290
     0
174
     0
 93
        1
 44
0.0
173
     0
291
     1
 45
0.0
1001
ACAD
1000
AcDbSavedByObjectVersion
1070
     0
  0
VISUALSTYLE
  5
34
102
{ACAD_REACTORS
330
2A
102
}
330
2A
100
AcDbVisualStyle
  2
Conceptual
 70
     9
 71
     3
 72
     2
 73
     0
 90
        0
 40
-0.6
 41
-30.0
 62
     5
 63
     7
421
 16777215
 74
     2
 91
        2
 64
     7
 65
   257
 75
     1
175
     1
 42
40.0
 92
        8
 66
     7
 43
1.0
 76
     1
 77
     6
 78
     2
 67
     7
 79
     3
170
     0
171
     0
290
     0
174
     0
 93
        1
 44
0.0
173
     0
291
     0
 45
0.0
1001
ACAD
1000
AcDbSavedByObjectVersion
1070
     0
  0
VISUALSTYLE
  5
35
102
{ACAD_REACTORS
330
2A
102
}
330
2A
100
AcDbVisualStyle
  2
Dim
 70
    11
 71
     2
 72
     2
 73
     0
 90
        0
 40
-0.6
 41
-30.0
 62
     5
 63
     7
421
 16777215
 74
     1
 91
        4
 64
     7
 65
   257
 75
     1
175
     1
 42
1.0
 92
        8
 66
     7
 43
1.0
 76
     1
 77
     6
 78
     2
 67
     7
 79
     5
170
     0
171
     0
290
     0
174
     0
 93
        1
 44
-50.0
173
     0
291
     1
 45
0.0
1001
ACAD
1000
AcDbSavedByObjectVersion
1070
     0
  0
VISUALSTYLE
  5
39
102
{ACAD_REACTORS
330
2A
102
}
330
2A
100
AcDbVisualStyle
  2
Facepattern
 70
    15
 71
     2
 72
     2
 73
     0
 90
        0
 40
-0.6
 41
-30.0
 62
     5
 63
     7
421
 16777215
 74
     1
 91
        4
 64
     7
 65
   257
 75
     1
175
     1
 42
1.0
 92
        8
 66
     7
 43
1.0
 76
     1
 77
     6
 78
     2
 67
     7
 79
     5
170
     0
171
     0
290
     0
174
     0
 93
        1
 44
0.0
173
     0
291
     1
 45
0.0
1001
ACAD
1000
AcDbSavedByObjectVersion
1070
     0
  0
VISUALSTYLE
  5
2B
102
{ACAD_REACTORS
330
2A
102
}
330
2A
100
AcDbVisualStyle
  2
Flat
 70
     0
 71
     2
 72
     1
 73
     1
 90
        2
 40
-0.6
 41
30.0
 62
     5
 63
     7
421
 16777215
 74
     0
 91
        4
 64
     7
 65
   257
 75
     1
175
     1
 42
1.0
 92
        8
 66
     7
 43
1.0
 76
     1
 77
     6
 78
     2
 67
     7
 79
     5
170
     0
171
     0
290
     0
174
     0
 93
       13
 44
0.0
173
     0
291
     1
 45
0.0
1001
ACAD
1000
AcDbSavedByObjectVersion
1070
     0
  0
VISUALSTYLE
  5
2C
102
{ACAD_REACTORS
330
2A
102
}
330
2A
100
AcDbVisualStyle
  2
FlatWithEdges
 70
     1
 71
     2
 72
     1
 73
     1
 90
        2
 40
-0.6
 41
30.0
 62
     5
 63
     7
421
 16777215
 74
     1
 91
        4
 64
     7
 65
   257
 75
     1
175
     1
 42
1.0
 92
        0
 66
   257
 43
1.0
 76
     1
 77
     6
 78
     2
 67
     7
 79
     5
170
     0
171
     0
290
     0
174
     0
 93
       13
 44
0.0
173
     0
291
     1
 45
0.0
1001
ACAD
1000
AcDbSavedByObjectVersion
1070
     0
  0
VISUALSTYLE
  5
2D
102
{ACAD_REACTORS
330
2A
102
}
330
2A
100
AcDbVisualStyle
  2
Gouraud
 70
     2
 71
     2
 72
     2
 73
     1
 90
        2
 40
-0.6
 41
30.0
 62
     5
 63
     7
421
 16777215
 74
     0
 91
        4
 64
     7
 65
   257
 75
     1
175
     1
 42
1.0
 92
        0
 66
     7
 43
1.0
 76
     1
 77
     6
 78
     2
 67
     7
 79
     5
170
     0
171
     0
290
     0
174
     0
 93
       13
 44
0.0
173
     0
291
     1
 45
0.0
1001
ACAD
1000
AcDbSavedByObjectVersion
1070
     0
  0
VISUALSTYLE
  5
2E
102
{ACAD_REACTORS
330
2A
102
}
330
2A
100
AcDbVisualStyle
  2
GouraudWithEdges
 70
     3
 71
     2
 72
     2
 73
     1
 90
        2
 40
-0.6
 41
30.0
 62
     5
 63
     7
421
 16777215
 74
     1
 91
        4
 64
     7
 65
   257
 75
     1
175
     1
 42
1.0
 92
        0
 66
   257
 43
1.0
 76
     1
 77
     6
 78
     2
 67
     7
 79
     5
170
     0
171
     0
290
     0
174
     0
 93
       13
 44
0.0
173
     0
291
     1
 45
0.0
1001
ACAD
1000
AcDbSavedByObjectVersion
1070
     0
  0
VISUALSTYLE
  5
38
102
{ACAD_REACTORS
330
2A
102
}
330
2A
100
AcDbVisualStyle
  2
Linepattern
 70
    14
 71
     2
 72
     2
 73
     0
 90
        0
 40
-0.6
 41
-30.0
 62
     5
 63
     7
421
 16777215
 74
     1
 91
        4
 64
     7
 65
   257
 75
     7
175
     7
 42
1.0
 92
        8
 66
     7
 43
1.0
 76
     1
 77
     6
 78
     2
 67
     7
 79
     5
170
     0
171
     0
290
     0
174
     0
 93
        1
 44
0.0
173
     0
291
     1
 45
0.0
1001
ACAD
1000
AcDbSavedByObjectVersion
1070
     0
  0
VISUALSTYLE
  5
33
102
{ACAD_REACTORS
330
2A
102
}
330
2A
100
AcDbVisualStyle
  2
Realistic
 70
     8
 71
     2
 72
     2
 73
     0
 90
        0
 40
-0.6
 41
-30.0
 62
     5
 63
     7
421
 16777215
 74
     1
 91
        0
 64
     7
 65
   257
 75
     1
175
     1
 42
1.0
 92
        8
 66
     8
424
  7895160
 43
1.0
 76
     1
 77
     6
 78
     2
 67
     7
 79
     5
170
     0
171
     0
290
     0
174
     0
 93
       13
 44
0.0
173
     0
291
     0
 45
0.0
1001
ACAD
1000
AcDbSavedByObjectVersion
1070
     0
  0
VISUALSTYLE
  5
37
102
{ACAD_REACTORS
330
2A
102
}
330
2A
100
AcDbVisualStyle
  2
Thicken
 70
    13
 71
     2
 72
     2
 73
     0
 90
        0
 40
-0.6
 41
-30.0
 62
     5
 63
     7
421
 16777215
 74
     1
 91
        4
 64
     7
 65
   257
 75
     1
175
     1
 42
1.0
 92
       12
 66
     7
 43
1.0
 76
     1
 77
     6
 78
     2
 67
     7
 79
     5
170
     0
171
     0
290
     0
174
     0
 93
        1
 44
0.0
173
     0
291
     1
 45
0.0
1001
ACAD
1000
AcDbSavedByObjectVersion
1070
     0
  0
ENDSEC
  0
EOF
